Cifra Club

Maior Abandonado

Cazuza

Cifrado: Versão 2 (guitarra y guitarra eléctrica)
Selo Cifra Club: esta cifra foi revisada para atender aos critérios oficiais da nossa Equipe de Qualidade.
tono: E (forma dos acordes no tom de D) Capotraste na 2ª casa
[Intro] D5  D5  Bm5  A

[Tab - Intro]

Parte 1 De 2
         D5
E|--------------------------------------------------------|
B|--------------------------------------------------------|
G|--------------------------------------------------------|
D|-------0-0-0-0-0-0-0-0-0-0-0-0-0------------------------|
A|-------0-0-0-0-0-0-0-0-0-0-0-0-0------------------------|
E|-x\-----------------------------------------------------|

Parte 2 De 2
    D5
E|--------------------------------------------------------|
B|--------------------------------------------------------|
G|--------------------------------------------------------|
D|-(7)-7-------7-(7)-7-------7-(7)-7-------7--------------|
A|-(5)-5-------5-(5)-5-------5-(5)-5-------5--------------|
E|-------7-5-7---------7-5-7---------7-5-7---7-5----------|

    Bm5  A
E|----------5---------------------------------------------|
B|----------5---------------------------------------------|
G|--------------------------------------------------------|
D|-(9)--(7)-----------------------------------------------|
A|-(9)--(7)-----------------------------------------------|
E|-(7)--(5)-----------------------------------------------|

[Primeira Parte]

[Tab - Primeira Parte]

[Parte 1 De 2]
    D5
E|--------------------------------------------------------|
B|--------------------------------------------------------|
G|--------------------------------------------------------|
D|-(7)-7------7---7-(7)-7------7---7-(7)-7------7---------|
A|-(5)-5------5---5-(5)-5------5---5-(5)-5------5---------|
E|-------7-5----7---------7-5----7---------7-5----7-------|

Parte 2 De 2
    Bm5  A
E|----------5---------------------------------------------|
B|----------5---------------------------------------------|
G|--------------------------------------------------------|
D|-(9)--(7)-----------------------------------------------|
A|-(9)--(7)-----------------------------------------------|
E|-(7)--(5)-----------------------------------------------|

D5
  Eu tô perdido
D5
  Sem pai nem mãe
D5                     Bm5  A
  Bem na porta da tua ca___sa

D5
  Eu tô pedindo
D5
  A tua mão
D5                    Bm5  A
  E um pouquinho do bra___ço

[Ponte 1]

[Tab - Ponte 1]

Parte 1 De 5
   G      A      G     A
E|-3---3--5---5--3---3-0-0-0-0----------------------------|
B|-3---3--5---5--3---3-3-2-3-2----------------------------|
G|---------------------2-2-2-2----------------------------|
D|---5------7------5--------------------------------------|
A|--------------------------------------------------------|
E|--------------------------------------------------------|

Parte 2 De 5
     G        F#m        E
E|-------3----------2----------0-----0-----0--------------|
B|-----3---3----------2----------0------------------------|
G|-2/4------------2----------1-----2---2-1----------------|
D|--------------4----------2------------------------------|
A|--------------------------------------------------------|
E|-----------(2)--------(0)-------------------------------|

Parte 3 De 5
   G      A      G       A
E|-3---3--5---5--3---3------9-------5---------------------|
B|-3---3--5---5--3---3------------------------------------|
G|---------------------7/9----7-4/6-----------------------|
D|---5------7------5--------------------------------------|
A|--------------------------------------------------------|
E|--------------------------------------------------------|

Parte 4 De 5
    G           F#m         E
E|---------3-----------2-------0--------------------------|
B|-----------3-----------2-------0------------------------|
G|-------4-----------2-------------1----------------------|
D|-----5-----------4-----------------2--------------------|
A|-------------------------------------2------------------|
E|-(3)---------(2)---------(0)-----------0----------------|

Parte 5 De 5
    A  A5          A
E|--------------------------------------------------------|
B|-(2)-------------2--------------------------------------|
G|-(2)-------------2--------------------------------------|
D|-(2)-2-2-2-2-2-2-2--------------------------------------|
A|-(0)-0-0-0-0-0-0-0--------------------------------------|
E|--------------------------------------------------------|

G             A            G  A
 Migalhas dormidas do teu pão
G          F#m           E
 Raspas e restos me interessam
G             A          G  A
 Pequenas porções de ilusão
G             F#m          E
 Mentiras sinceras me interessam
        A  A5  A
Me interessam

[Segunda Parte]

[Tab - Segunda Parte]

Parte 1 De 2
    D5
E|--------------------------------------------------------|
B|--------------------------------------------------------|
G|--------------------------------------------------------|
D|-(7)-7------7---7-(7)-7------7---7-(7)-7------7---------|
A|-(5)-5------5---5-(5)-5------5---5-(5)-5------5---------|
E|-------7-5----7---------7-5----7---------7-5----7-------|

Parte 2 De 2
    Bm5  A
E|----------5---------------------------------------------|
B|----------5---------------------------------------------|
G|--------------------------------------------------------|
D|-(9)--(7)-----------------------------------------------|
A|-(9)--(7)-----------------------------------------------|
E|-(7)--(5)-----------------------------------------------|

D5
  Eu tô pedindo
D5
  A tua mão
D5                       Bm5  A
  Me leve para qualquer la___do

D5
  Só um pouquinho
D5
  De proteção
D5                Bm5  A
  Ao maior abandona___do

[Ponte 2]

[Tab - Ponte 2]

Parte 1 De 5
   G      A      G       A
E|-3---3--5---5--3---3------9-------5---------------------|
B|-3---3--5---5--3---3------------------------------------|
G|---------------------7/9----7-4/6-----------------------|
D|---5------7------5--------------------------------------|
A|--------------------------------------------------------|
E|--------------------------------------------------------|

Parte 2 De 5
    G           F#m         E
E|---------3-----------2-----------0-----0-----0----------|
B|-----------3-----------2-----------0--------------------|
G|-------4-----------2-----------1-----2---2-1------------|
D|-----5-----------4-----------2--------------------------|
A|--------------------------------------------------------|
E|-(3)---------(2)---------(0)----------------------------|

Parte 3 De 5
   G               A             G
E|---3-----3---------5-----5-------3-----3---------3------|
B|-----3-----3---3-----5-----5-------3-----3---3-----3----|
G|-------4-----4---------6-----6-------4-----4---------4--|
D|-5---------------7-------------5---------------5--------|
A|--------------------------------------------------------|
E|--------------------------------------------------------|

Parte 4 De 5
   G              F#m       E
E|---3-----3-----------------------0----------------------|
B|-----3-----3-----------------------0--------------------|
G|-------4-----4---------2-------1-----1------------------|
D|-5-------------------4-------2---------2----------------|
A|-------------------4---------------------2--------------|
E|---------------(2)-------(0)---------------0------------|

Parte 5 De 5
    A  A5          A
E|--------------------------------------------------------|
B|-(2)-------------2--------------------------------------|
G|-(2)-------------2--------------------------------------|
D|-(2)-2-2-2-2-2-2-2--------------------------------------|
A|-(0)-0-0-0-0-0-0-0--------------------------------------|
E|--------------------------------------------------------|

G           A           G  A
 Teu corpo com amor ou não
G          F#m           E
 Raspas e restos me interessam
G        A           G  A
 Me ame como a um irmão
G             F#m          E
 Mentiras sinceras me interessam
        A  A5  A
Me interessam

[Solo] D5  Bm5  A

[Tab - Solo]

    D5
E|--------------------------------------------------------|
B|--------------------------------------------------------|
G|--------------------------------------------------------|
D|-(7)-7-------7-(7)-7-------7-(7)-7-------7--------------|
A|-(5)-5-------5-(5)-5-------5-(5)-5-------5--------------|
E|-------7-5-7---------7-5-7---------7-5-7---7-5----------|

    Bm5  A
E|----------5---------------------------------------------|
B|----------5---------------------------------------------|
G|--------------------------------------------------------|
D|-(9)--(7)-----------------------------------------------|
A|-(9)--(7)-----------------------------------------------|
E|-(7)--(5)-----------------------------------------------|

[Ponte 1]

[Tab - Ponte 1]

Parte 1 De 5
   G      A      G     A
E|-3---3--5---5--3---3-0-0-0-0----------------------------|
B|-3---3--5---5--3---3-3-2-3-2----------------------------|
G|---------------------2-2-2-2----------------------------|
D|---5------7------5--------------------------------------|
A|--------------------------------------------------------|
E|--------------------------------------------------------|

Parte 2 De 5
     G        F#m        E
E|-------3----------2----------0-----0-----0--------------|
B|-----3---3----------2----------0------------------------|
G|-2/4------------2----------1-----2---2-1----------------|
D|--------------4----------2------------------------------|
A|--------------------------------------------------------|
E|-----------(2)--------(0)-------------------------------|

Parte 3 De 5
   A      B      A       B
E|-3---3--5---5--3---3------9-------5---------------------|
B|-3---3--5---5--3---3------------------------------------|
G|---------------------7/9----7-4/6-----------------------|
D|---5------7------5--------------------------------------|
A|--------------------------------------------------------|
E|--------------------------------------------------------|

Parte 4 De 5
    G           F#m         E
E|---------3-----------2-------0--------------------------|
B|-----------3-----------2-------0------------------------|
G|-------4-----------2-------------1----------------------|
D|-----5-----------4-----------------2--------------------|
A|-------------------------------------2------------------|
E|-(3)---------(2)---------(0)-----------0----------------|

Parte 5 De 5
    A  A5          A
E|--------------------------------------------------------|
B|-(2)-------------2--------------------------------------|
G|-(2)-------------2--------------------------------------|
D|-(2)-2-2-2-2-2-2-2--------------------------------------|
A|-(0)-0-0-0-0-0-0-0--------------------------------------|
E|--------------------------------------------------------|

G             A            G  A
 Migalhas dormidas do teu pão
G          F#m           E
 Raspas e restos me interessam
G             A          G  A
 Pequenas porções de ilusão
G             F#m          E
 Mentiras sinceras me interessam
        A  A5  A
Me interessam

[Terceira Parte]

[Tab - Terceira Parte]

Parte 1 De 2
    D5
E|--------------------------------------------------------|
B|--------------------------------------------------------|
G|--------------------------------------------------------|
D|-(7)-7------7---7-(7)-7------7---7-(7)-7------7---------|
A|-(5)-5------5---5-(5)-5------5---5-(5)-5------5---------|
E|-------7-5----7---------7-5----7---------7-5----7-------|

Parte 2 De 2
    Bm5  A
E|----------5---------------------------------------------|
B|----------5---------------------------------------------|
G|--------------------------------------------------------|
D|-(9)--(7)-----------------------------------------------|
A|-(9)--(7)-----------------------------------------------|
E|-(7)--(5)-----------------------------------------------|

D5
  Estou pedindo
D5
  A tua mão
D5                      Bm5  A
  Me leve pra qualquer la___do

D5
  Só um pouquinho
D5
  De proteção
D5                Bm5  A
  Ao maior abandona___do

[Final] D5  Bm5  A5  D5

[Tab - Final]

    D5
E|--------------------------------------------------------|
B|--------------------------------------------------------|
G|--------------------------------------------------------|
D|-(7)-7-------7-(7)-7-------7-(7)-7-------7--------------|
A|-(5)-5-------5-(5)-5-------5-(5)-5-------5--------------|
E|-------7-5-7---------7-5-7---------7-5-7---7-5----------|

    Bm5  A        D5
E|----------5---------------------------------------------|
B|----------5---------------------------------------------|
G|--------------------------------------------------------|
D|-(9)--(7)-------7---------------------------------------|
A|-(9)--(7)-------5---------------------------------------|
E|-(7)--(5)---5-7-----------------------------------------|
Otros videos de esta canción
    2 exhibiciones
      • ½ Tono
      • A
      • Bb
      • B
      • C
      • Db
      • D
      • Eb
      • E
      • F
      • F#
      • G
      • Ab
    • Agregar a la lista

    Afinação da cifra

    Afinador online

      Ops (: Contenido disponible solo en portugués.
      OK