Cifra Club

Maior Abandonado

Cazuza

Tab de bajo: Principal
Selo Cifra Club: esta cifra foi revisada para atender aos critérios oficiais da nossa Equipe de Qualidade.
tono: Afinación:
Intro:
G|-----------------|
D|-----------------|
A|-7/0-------------| 
E|-----0-0-0-0-0-0-|

Riff 1(4x)

G|----------------------------------------|
D|----------------------------------------|
A|7-7s4s2s4-7-7s4s2s4-7-7s4s2s-4-7-4---4-7|
E|----------------------------------7-7---|

Variação para o Riff 1(4x)

G|----------------------------------------|
D|----------------------------------------|
A|----(-7--7-------7--7-)--x4--7-7--------|
E|----(------9-7-9------)----------9--4---|

Essa é uma variação para pessoas que tem os dedo curtos assim como eu!

Eu tô perdido...

Riff 2 - 2x:
G|-----------------------|
D|-----------------------|
A|---2-2---2-2-----------|
E|5-5---5-5---5-4-2-2-5-5|

Migalhas dormidas do teu pão...

Ponte:
G|-----------------|
D|-----------------|
A|2-s-4-s-7-s-4-s-2|
E|-----------------|

(Riff 1 - 2x)

(Riff 2 - 2x)

(Ponte)

(Riff 1)

(Riff 2 - 2x)

(Ponte)

(Riff 1 - 3x)
Otros videos de esta canción
    17.463 exhibiciones

    Afinación de cifrado

    Afinador online

    OK