Cifra Club

Medieval II

Cazuza

Tab de bajo: Principal
Selo Cifra Club: esta cifra foi revisada para atender aos critérios oficiais da nossa Equipe de Qualidade.
tono: Afinación:
Intro:

G|--------------------------------------------------------|
D|--------------------------------------------------------|
A|-2~---4~------------------12\2~---4~--------------------|
E|------------5~---5-0~-------------------5~----5-0~--12\-|       

G|--------------------------------------------------------|
D|--------------------------------------------------------|
A|-2-2—-2-2-2--2-2-2--2-2-2--2-4-4—-4-4-4—-4-4-4—-4-4-4--4|
E|--------------------------------------------------------|       

G|--------------------------------------------------------|
D|--------------------------------------------------------|
A|--------------------------------------------------------|
E|---5-5-—5-5-5-—5-5-5--5-5-5—-5-0~-----------------------|       

G|--------------------------------------------------|
D|--------------------------------------------------|
A|-2---0-2--2------------------2---0-2—-2-----------|
E|---------------5----0-5-------------------5—--0-5-|       

G|--------------------------------------------------|
D|--------------------------------------------------|
A|-2---0-2--2------------------4------------2-—0-2--|
E|---------------5----0-5----------0-5-5------------|   

G|--------------------------------------------------|
D|--------------------------------------------------|
A|-2---0-2--2------------------2---0-2—-2-----------|
E|---------------5----0-5-------------------5—--0-5-|       
 
G|---------------------------------------------------------|
D|---------------------------------------------------------|
A|-2---0-2--2------------------4------------22222222222222-|
E|---------------5----0-5----------0-5-5-------------------|  

Refrão:

G|--------------------------------------------------------------|
D|----------------------------------------4---------------------|
A|-4---4-4-4--------------2—-2-2-2—2~—4/6---6-4---4-4-4---------|
E|-------------5---5-5-5----------------------------------5-----|  
  
G|-----------------------------------------------------------|
D|-----------------------------------------------------------|
A|---------2—-2-2-2--2-2-2-----------------------------------|
E|--5-5-5----------------------0h2—--2-2-2-2-2-2-5-5-5-5-5-5-|            
          
G|-------------------------------------------------------------|
D|--------------------4-6-4------------------------------------|
A|--2-—2-2-2-—2-2-4/6-------6-----------------------2----------|
E|------------------------------2—-2-2-2--5--5-5-5-------12\---|            
  
(Repete)
Otros videos de esta canción
    245 exhibiciones

    Afinación de cifrado

    Afinador online

    OK