Cifra Club

Aprenda

My Life Is Going On

Cecilia Krull

Tablatura: Principal (guitarra)
Tom: Bm
[Intro] Bm7/11  A  E/G#  G6
 
    Bm7/11              A6
E|----------------------------------------------------|
B|--3-------------------2-----------------------------|
G|----------------------------------------------------|
D|----4----4----4-------------4----4----4-------------|
A|--2----2----2----2-------0----0----0----0-----------|
E|----------------------------------------------------|

    E/G#                     G6
E|----------------------------------------------------|
B|--0-------------------------------------------------|
G|----------------------------------------------------|
D|----------2----2----2--------2----2----2------------|
A|----------------------------------------------------|
E|-------4----4----4----4----3----3----3----3---------|

[Primeira Parte]

       Bm7/11                A6
If I stay with you, if I'm choosing wrong
         E/G#      G6
I don't care at all
        Bm7/11               A6
If I'm loosing now, but I'm wining late
       E/G#      G6
That's all I want

( Bm7/11  A6  E/G#  G6 )

        Bm7/11                    A6
Now we need some space, 'cause I feel for you
       E/G#          G6
And I want to change
        Bm7/11        A6
Growing up alone, it seems so short
   E/G#         G6
I can't explain

[Pré-Refrão]

    Bm7/11               D9   
Whatever happens in the future
               G6  Em7
Trust in destiny
        Bm7/11             D9   
Don't try to make anything else 
               G6  A
Even when you feel

[Refrão]

                E  G6   Bm7/11  E     
I don't care at all   I am lost
                G6   E  Bm7/11  E
I don't care at all
 G6               A
Lost my time, my life is going on

( Bm7/11  A6  E/G#  G6 )
( Bm7/11  A6  E/G#  G6 )

[Segunda Parte]

        Bm7/11       
I will be so strong
         A6               E/G#      G6
Looking for a new version of myself
          Bm7/11            A6           E/G#        G6
Cause now all I want is to be a part of my new world

[Pré-Refrão]

    Bm7/11               D9   
Whatever happens in the future
               G6  Em7
Trust in destiny
        Bm7/11             D9   
Don't try to make anything else 
               G6  A
Even when you feel

[Refrão]

                E  G6   Bm7/11  E     
I don't care at all   I am lost
                G6   E  Bm7/11  E
I don't care at all

                E  G6   Bm7/11  E     
I don't care at all   I am lost
                G6   E  Bm7/11  E
I don't care at all
 G6               A            Bm7/11
Lost my time, my life is going on
Compositor Cecilia Krull / Manel Santiesteban
Colaboración y revision:
6.162 reproducciones
  • Simplificar cifra
    • ½ Tom
    • Am
    • Bbm
    • Bm
    • Cm
    • C#m
    • Dm
    • Ebm
    • Em
    • Fm
    • F#m
    • Gm
    • G#m
  • Adicionar à lista

    0 comentarios

    Mostrar mais comentários

    ¿Conseguiste tocar?

    65 Tocaron 14 Ainda não

    Grave um vídeo tocando My Life Is Going On e mande pra gente!

    00:00 / 00:00
    outros vídeos desta música
    repetir qualidade Automático
    Outros vídeos desta música
    00:00 / 00:00
    Automático
    OK