Cifra Club

Te busco

Celia Cruz

Cifrado: Principal (guitarra y guitarra eléctrica)
Selo Cifra Club: esta cifra foi revisada para atender aos critérios oficiais da nossa Equipe de Qualidade.
tono: D
Intro
E|----------------------------------|
B|----------------------------------|
G|----------------------------------|
  A1 |----------------------------------|
E|--0-2-4-5-------5-2-------4-----2-|
B|------------------------4-----4---|

E|----------------------------------|
B|----------------------------------|
G|----------------------------------|
     |----------------------------------|
E|--0-2-4-5-------5-2-------4-----2-|
B|------------------------4-----4---|

E|------------|
B|------------|
  A2 |------------|
E|------------| D-A7-Bm7
B|--0-2-4-----|
G|------------| "La parte A2 se repite 2 veces"




D           A7      Bm7
Al cielo una mirada larga
Em                     A7
Buscando un poco de mi vida
F#m7                Bm7
Mis estrellas no responden
Em                    A7
Para alumbrarme hacia tu risa


Olas que esfuman de mis ojos
A una legión de tus recuerdos
Me roban formas de tu rostro
Dejando arena en el silencio


CORO
D           F#m7      Bm7
Te busco perdida entre sueños
Em
El ruido de la gente
A7
envuélvelo en un velo
D         F#m7      Bm7
Te busco volando en el cielo
Em                          A7
El viento te ha llevado como un pañuelo viejo
F#m               Bm7
Y no hago más que rebuscar
Em           A7
Paisajes conocidos
F#m7             Bm7            Em                  A2
en lugares tan extraños, que no puedo dar contigo



En cualquier huella te persigo (voy tras de ti)
En una sombra te dibujo (al recordar)
Huellas y sombras que se pierden (de la soledad)
La suerte no vino conmigo


CORO
G  O
CORO


     D
.....Y te busco



E|-----------------------------------------------|

NOTAS Y ACA RACIONES

1-) A excepción del coro entre cada verso se puede hacer el bajo:

E|------------|
B|------------|
E|------------|
B|------------|
     |--0-2-4-----|
     |------------|

2-) Para los que no sepan el arpegio, hago aqui la parte A2 para que se guien:


E|--------------2------------0---------------2---|
B|-----------------3-----------2-----------3-----|
G|-----------2------------0--------------2-------|
D|---------0-------------------------------------|
A|--0-2-4--------------0------------2------------|
E|-----------------------------------------------|
Otros videos de esta canción
    1.657 exhibiciones
      • ½ Tono
      • A
      • Bb
      • B
      • C
      • Db
      • D
      • Eb
      • E
      • F
      • F#
      • G
      • Ab
    • Agregar a la lista

    Afinación de cifrado

    Afinador online

      OK