Cifra Club

Aunque No Sea Conmigo

Celso Piña

Cifrado: Versão 3 (guitarra y guitarra eléctrica)
Selo Cifra Club: esta cifra foi revisada para atender aos critérios oficiais da nossa Equipe de Qualidade.
tono: F#m
Intro

      Bm   E7    A/Ab        Bm   E7    A 
E|-----------------------------------------0------|
B|-------3-3-3------2-2h3-2-----3-3-3-3-----2-----|
G|-------2-2-2-----1-------1----2-2-2-2---2--2----|
D|----------------2---------2------------2--------|
A|-0-1-2--2-----0--------------2---2----0---------|
E|------------------------------------------------|

      Bm   E7    A/Ab        Bm      E7  F#m 
E|----------------------------------------2---2---|
B|-------3-3-3------2-2h3-2-----3----3-3--2----2--|
G|-------2-2-2-----1-------1----4----1-1--2-----2-|
D|----------------2---------2-------------4--4----|
A|-0-1-2--2-----0--------------2--2--2-2--4-4-----|
E|----------------------------------------2-------|

      Bm   E7    A/Ab        Bm   E7    A 
E|-----------------------------------------0------|
B|-------3-3-3------2-2h3-2-----3-3-3-3-----2-----|
G|-------2-2-2-----1-------1----2-2-2-2---2--2----|
D|----------------2---------2------------2--------|
A|-0-1-2--2-----0--------------2---2----0---------|
E|------------------------------------------------|

      Bm   E7    A/Ab        Bm      E7  F#m 
E|----------------------------------------2-----2-|
B|-------3-3-3------2-2h3-2-----3----3-3--2-----2-|
G|-------2-2-2-----1-------1----4----1-1--2-----2-|
D|----------------2---------2-------------4-----4-|
A|-0-1-2--2-----0--------------2--2--2-2--4-5-4-4-|
E|----------------------------------------2-----2-|


F#m          Bm      E7                       F#m     
A placer....  Puedes tomarte el tiempo necesario...  

Bm          E7                   A       
Que por mi parte yo estare esperando... 

D                                       Ebdim7
El dia en que te decidas a volver y ser feliz

            C#7
Como antes fuimos.

F#m           Bm         E7                         F#m     
Se muy bien...   Que como yo estaras sufriendo a diario...

Bm      E7                             A        
La soledad de dos amantes que al dejarse... 

D                      Ebdim7
Estan luchando cada quien...

                 C#7        Bdim7*-C#dim7*-Edim7*
Por no encontrarse...

CORO

            Bm              E7                     A/Ab                 
Y no es por eso... Que haya dejado de quererte un solo dia

          D                            Ebdim7 
Estoy contigo aunque estes lejos de mi vida...

            C#7                       F#m - F#m7    
Por tu felicidad...     A cosa de la mia...

                Bm                   E7                            
Pero si ahora tienes... Tan solo la mitad del gran amor 

           
              A/Ab                    
que aun te tengo...

          D                              Ebdim7
Puedes jurar que al que te quiere lo bendigo...

                  C#7                            F#m         
Quiero que seas feliz...   Aunque no sea conmigo...

Interlude

      Bm   E7    A/Ab         Bm   E7    A 
E|-----------------------------------------0-------------------|
B|-------3-3-3------2-2h3-2-----3-3-3-3-----2------------------|
G|-------2-2-2-----1-------1----2-2-2-2---2--2-----------------|
D|----------------2---------2------------2---------------------|
A|-4-3-2--2-----0--------------2---2----0----------------------|
E|-------------------------------------------------------------|

      Bm   E7    A/Ab        Bm      E7  F#m         F#m7
E|----------------------------------------2----2-----2-2-2-2-2-|
B|-------3-3-3------2-2h3-2-----3----3-3--2-----2----2-2-2-2-2-|
G|-------2-2-2-----1-------1----4----1-1--2---2--2---3-3-3-3-3-|
D|----------------2---------2-------------4--4----4--2-2-2-2-2-|
A|-0-1-2--2-----0--------------2--2--2-2--4-4------4-4-4-4-4-4-|
E|----------------------------------------2----------2-2-2-2-2-|


F#m7             Bm               E7                     A/Ab   
    Y no es por eso... Que haya dejado de quererte un solo dia

        D                              Ebdim7 
Estoy contigo aunque estes lejos de mi vida...

                C#7                F#m - F#m7    
Por tu felicidad... A costA de la mia...

                  Bm                     E7              
Pero si ahora tienes... Tan solo la mitad del gran amor que 

        A/Ab                    
aun te tengo...

          D                          Ebdim7
Puedes jurar que al que te quiere lo bendigo...

                 C#7                      F#m         
Quiero que seas feliz... Aunque no sea conmigo...

Outro

E|-2----4-2-4p2-2p0----|
B|-2-------------------|
G|-2---2---------------|
D|-4--4----------------|
A|-4-4-----------------|
E|-2-------------------|


 Bdim7*  C#dim7* Edim7* C#7  Ebdim7
E|--4--| --6--   --9-- --4-- --2--
B|--3--| --5--   --8-- --0-- --1--
G|--4--| --6--   --9-- --4-- --2--
D|--3--| --5--   --8-- --3-- --1--
A|-----| -----   ----- --4-- --0--
E|-----| -----   ----- --0-- --0--
Otros videos de esta canción
    8 exhibiciones
      • ½ Tono
      • Am
      • Bbm
      • Bm
      • Cm
      • C#m
      • Dm
      • Ebm
      • Em
      • Fm
      • F#m
      • Gm
      • G#m
    • Agregar a la lista

    Afinação da cifra

    Afinador online

      Ops (: Contenido disponible solo en portugués.
      OK