Cifra Club

Aunque No Sea Conmigo

Celso Piña

Cifrado: Versão 2 (guitarra y guitarra eléctrica)
Selo Cifra Club: esta cifra foi revisada para atender aos critérios oficiais da nossa Equipe de Qualidade.
tono: F#m
Intro

       Bm7  E  Amaj7            Bm7 Fdim F#m
E|-----------------0-0----0-0-|------------4---2-2----2-2-|
B|--------3-----0--2--2---2---|--------3---3---2--2---2---|
G|--------2-----1--1---1--1---|--------2-------2---2--2---|
D|-----------------2------2---|-----------3----4------4---|
A|--0-1-2----------0------0---|--0-1-2---------4------4---|
E|----------2-0---------------|----------------2------2---|

      Bm7   E  Amaj7            Bm7 Fdim F#m             F#m
E|-----------------0-0----0-0-|------------4---2-----|-------------2---|
B|--------3-----0--2--2---2---|--------3---3---2-----|-------------2---|
G|--------2-----1--1---1--1---|--------2-------2-----|-------------2---|
D|-----------------2------2---|-----------3----4-----|-------------4---|
A|--0-1-2----------0------0---|--0-1-2---------4-----|--/5-4-2-0---4---|
E|----------2-0---------------|----------------2-----|-----------4-2---|

Estrofa

   F#m
A placer,
Bm7      E                 F#m
Puedes tomarte el tiempo necesario,
Bm7         E                  Amaj7
que por mi parte yo estaré esperando,
   Dmaj7                   Bm7
el día en que te decidas a volver,
                   C#7
y ser feliz como antes fuimos.

       F#m
Sé muy bien,
Bm7     E                    F#m
que como yo estarás sufriendo a diario,
Bm7      E                  Amaj7
La soledad de dos amantes que al dejarse,
Dmaj7           Bm7
están luchando cada quien,
             C#7
por no encontrarse.

Fdim G#dim7 Bdim

Coro
       Bm7
Y no es por eso,
           E                     Amaj7
que haya dejado de quererte un solo día,
       Dmaj7                         Bm7
estoy contigo aunque estés lejos de mi vida,
           C#7
por tu felicidad,
             F#m F#
a costa de la mía.

               Bm7
Pero si ahora tienes,
E
tan solo la mitad,
                       Amaj7
del gran amor que aún te tengo,
       Dmaj7
puedes jurar,
                         Bm7
que al que te quiere lo bendigo,
                 C#7
quiero que seas feliz,
aunque no sea conmigo.

Intro

 Bm7   E    Amaj7               Bm7 Fdim F#m
E|-----------------0-0----0-0-|------------4---2-2----2-2-|
B|--------3-----0--2--2---2---|--------3---3---2--2---2---|
G|--------2-----1--1---1--1---|--------2-------2---2--2---|
D|-----------------2------2---|-----------3----4------4---|
A|--0-1-2----------0------0---|--0-1-2---------4------4---|
E|----------2-0---------------|----------------2------2---|

 Bm7   E    Amaj7               Bm7 Fdim F#m
E|-----------------0-0----0-0-|------------4---2-2----2---|
B|--------3-----0--2--2---2---|--------3---3---2--2---2---|
G|--------2-----1--1---1--1---|--------2-------2---2--2---|
D|-----------------2------2---|-----------3----4------4---|
A|--0-1-2----------0------0---|--0-1-2---------4------4---|
E|----------2-0---------------|----------------2------2---|

F#m F#


Coro

       Bm7
Y no es por eso,
           E                     Amaj7
que haya dejado de quererte un solo día,
       Dmaj7                         Bm7
estoy contigo aunque estés lejos de mi vida,
           C#7
por tu felicidad,
             F#m F#
a costa de la mía.

               Bm7
Pero si ahora tienes,
E
tan solo la mitad,
                       Amaj7
del gran amor que aún te tengo,
       Dmaj7
puedes jurar,
                         Bm7
que al que te quiere lo bendigo,
                 C#7
quiero que seas feliz,
aunque no sea conmigo.

           F#m
E|-------------2---|
B|-------------2---|
G|-------------2---|
D|-------------4---|
A|--/5-4-2-0---4---|
E|-----------4-2---|
Otros videos de esta canción
    47 exhibiciones
      • ½ Tono
      • Am
      • Bbm
      • Bm
      • Cm
      • C#m
      • Dm
      • Ebm
      • Em
      • Fm
      • F#m
      • Gm
      • G#m
    • Agregar a la lista

    Afinação da cifra

    Afinador online

      Ops (: Contenido disponible solo en portugués.
      OK