Cifra Club

Gente Impresentable

Celtas Cortos

Cifrado: Principal (guitarra y guitarra eléctrica)
Selo Cifra Club: esta cifra foi revisada para atender aos critérios oficiais da nossa Equipe de Qualidade.
tono: C
intro:
G    Bb   C   G  
G    F   C   G  

o algo así:

E|-------------------------------------------------------------|
B|-------------------------------------------------------------|
Sol-------------------------------------------------5-5---5-----
D|--5-5---5-6-6---6-8-8---8-5-5---5-5-5--5-3-3---3-5-5---5-5-5-|
La --5-5---5-6-6---6-8-8---8-5-5---5-5-5--5-3-3---3-3-3---3-5-5-
E|--3-3---3-4-4---4-6-6---6-3-3---3-3-3--3-1-1---1---------3-3-|


junto a esto va una flauta que en guitarra es así

E|--7-5-3----7-5-3-6-5-3---6-5-3-6-5-3---6-5-3-7-7-8-9-10-7-5-3|
B|-------------------------------------------------------------|
G|-------------------------------------------------------------|
D|-------------------------------------------------------------|
A|-------------------------------------------------------------|
E|-------------------------------------------------------------|

Mi --7-5-3----7-5-3-6-5-3---6-5-3-6-5-3---6-5-3-3-3-----3-3----3
B|-------------------------------------------------5-3-----5-3-|
G|-------------------------------------------------------------|
D|-------------------------------------------------------------|
A|-------------------------------------------------------------|
E|-------------------------------------------------------------|

G             Bb 
Una gente impresentable
 C                G  
por donde quiera que vamos
G               F 
hay que llevar la contraria
C                  G  
porque si no reventamos

debemos ser algo tontos
porque no nos enteramos
que nos comen la merienda
ya hasta los propios marranos.

Esta gente es un caos
lo vamos a demostrar:
'cada uno con su coco
cada monte como pueda'

De patearnos la patria
estamos ya desengañados
que no pillamos currito
ni corriendo ni parados.

Esta gente es un caos
lo vamos a demostrar:
'cada uno con su coco
cada monte como pueda'

(aki se pone rapida, como es originalmente, con los mismos
acordes, pero en riff)


G             Bb 
Una gente impresentable
 C                G  
por donde quiera que vamos
G               F 
hay que llevar la contraria
C                  G  
porque si no reventamos

debemos ser algo tontos
porque no nos enteramos
que nos comen la merienda
ya hasta los propios marranos.

Esta gente es un caos
lo vamos a demostrar:
'cada uno con su coco
cada monte como pueda'

G   Bb  C  G  
G   F  C  G  
G   Bb  C  G  
G   F  C  (G   F  G  )


los acordes entre parentesis se tocan rapido de esta manera
para concluir la canción

E|-------------|
B|-------------|
G|-------------|
Re -5-5-5-5-3-5-
A|-5-5-5-5-3-5-|
Mi -3-3-3-3-1-3-
Otros videos de esta canción
    32 exhibiciones
      • ½ Tono
      • A
      • Bb
      • B
      • C
      • Db
      • D
      • Eb
      • E
      • F
      • F#
      • G
      • Ab
    • Agregar a la lista

    Afinação da cifra

    Afinador online

      Ops (: Contenido disponible solo en portugués.
      OK