Cifra Club

Retales de una vida

Celtas Cortos

Cifrado: Principal (guitarra y guitarra eléctrica)
Selo Cifra Club: esta cifra foi revisada para atender aos critérios oficiais da nossa Equipe de Qualidade.
tono: D
E|-----------------------|------------------------|
B|-0-5-7-8-10-8---8-7-8--|-7-8-10-8-7-----8-7-----|
G|-----------------------|------------7-------7---|
D|-----------------------|------------------------|
A|-----------------------|------------------------|
E|-----------------------|------------------------|

E|-----------------|------------------------------|
B|-7-8-7-5---------|-----5-7-8-7-5-5-5-3-5-5-3-0--|
G|---------7-------|---7--------------------------|
D|-----------7-----|-7----------------------------|
A|-----------------|------------------------------|
E|-----------------|------------------------------|
Otros videos de esta canción
    225 exhibiciones
      • ½ Tono
      • A
      • Bb
      • B
      • C
      • Db
      • D
      • Eb
      • E
      • F
      • F#
      • G
      • Ab
    • Agregar a la lista

    Afinação da cifra

    Afinador online

      Ops (: Contenido disponible solo en portugués.
      OK