Cifra Club

Aprenda

Brincar de Ser Feliz

César Menotti e Fabiano

Tablatura: Principal (guitarra)
Tom: G
(intro) 

E |------------------------------------------------------------------------
B |------------------------------------------------------------------------
G |----2-4--4s5-5-5-5-5-5-5-4-5-5-4-5-5s7--5-5-5-4------2-4-5-5-5-4-4-4-2--
D |--2------------------------------------------------2--------------------
A |------------------------------------------------------------------------
E |------------------------------------------------------------------------

E |------------------------------------------------------------------------
B |------------------------------------------------------------------------
G |--2--4--2--1------------------------------------------------------------
D |---------------2h3p2--0--2----------------------------------------------
A |------------------------------------------------------------------------
E |------------------------------------------------------------------------

Em
Tranquei a porta do meu peito
D
Depois joguei a chave fora
C
E bem depressa eu mandei
             B7
A solidão embora
Em
E nem dei o primeiro passo
D
Já dei de cara com você
C
Me olhando com aquele jeito
             B7
Que só você tem quando quer me vencer
Em
Dona das minhas vontades
Bm
Com a chave da paixão
      E7
Tranqüilamente vai e volta
               Am
Entra e abre a porta do meu coração
       B7
Já sabe o meu ponto fraco
    Em
Das minhas manhas e desejos
    F#7
Desliza sobre a minha pele
                B7
Põe na minha boca o mel dos seus beijos
              E
Como é que eu posso
                                  F#m
Me livrar das garras desse amor gostoso
               B7
O jeito é relaxar e começar
         E    B7
Tudo de novo
                E
Como é que eu posso não querer
                   A
Se na verdade eu quero bis
             E
Rolar com você
          B7                 E
Nem que seja pra brincar de ser feliz
A             E
Rolar com você
          B7                 Em
Nem que seja pra brincar de ser feliz
Compositor Maria Dapaz / Nino
Colaboración y revision:
  • Mateus Palma
  • William Zocolaro
130 reproducciones
    • ½ Tom
    • A
    • Bb
    • B
    • C
    • Db
    • D
    • Eb
    • E
    • F
    • F#
    • G
    • Ab
  • Adicionar à lista

    0 comentarios

    Mostrar mais comentários

    ¿Conseguiste tocar?

    3 Tocaron 0 Ainda não

    Grave um vídeo tocando Brincar de Ser Feliz e mande pra gente!

    00:00 / 00:00
    outros vídeos desta música
    repetir qualidade Automático
    Outros vídeos desta música
    00:00 / 00:00
    Automático
    OK