Cifra Club

Caso Marcado

César Menotti e Fabiano

Cifrado: Versão 3 (guitarra y guitarra eléctrica)
tono: G
(intro)
E |-------------7-------------7------------------------
B |------8--10-----10--8--10-----10--8-----------------
G |-7/9---------------------------------9--------------
D |----------------------------------------------------
A |----------------------------------------------------
E |----------------------------------------------------

E |-10--9---8---7--------------------------------------
B |-12--11--10--8----------------------------8---------
G |-----------------7/9--7----------------7------------
r|-------------------------10--9------9---------------
A |--------------------------------10------------------
E |----------------------------------------------------

E |-7--7-------------7--7------------------------------
B |-------10--8--10--------10--8-----------------------
G |-------------------------------9--------------------
r|----------------------------------------------------
A |----------------------------------------------------
E |----------------------------------------------------

E |-----------------7--8--10--8--7---------------------
B |-------7--8--10------------------10--8--7-----------
G |-7--9--------------------------------------9--4-----
r|-------------------------------------------------5--
A |----------------------------------------------------
E |----------------------------------------------------

G            D
Palavras de amor
 C           G
Jogadas ao vento
        D
Sua imagem,
C                 G
Não sai do meu pensamento
                   D
Ninguém me tira esta dor
 C                 G
Nem as marcas do tempo
                   D
O que me falta é coragem
                 C
 Pra dizer a verdade
                 G
E enfrentar o momento..

(refrão)
             D
Só queria dizer pra você
         C             G
Que te amo e não vejo saída
               D
Nosso caso é marcado
                 C
 Nosso amor é jurado
              G
Você é minha vida
              D
Vê se volta correndo pra mim
     C                  G
 Sem você eu não durmo direito.
                  D
Quero estar ao seu lado
            C
E ouvir de você
             G
Te amo de qualquer jeito

G            D
Palavras de amor
C            G
Jogadas ao vento
       D
Sua imagem
C                   G
Não sai do meu pensamento
                   D
Ninguém me tira essa dor
C                G
Nem as marcas do tempo
                   D
O que me falta e coragem
                C
 Pra dizer a verdade
                 G
E enfrentar o momento..

             D
Só queria dizer pra você
         C            G
Que te amo e não vejo saída
               D
Nosso caso é marcado
                C
 Nosso amor é jurado
              G
Você é minha vida
              D
Vê se volta correndo pra mim
     C                 G
Sem você eu não durmo direito
                     D
Quero estar em seus bracos
             C
  E ouvir de você
            G
Te amo de qualquer jeito
00:00 / 00:00
Otros videos de esta canción
Repetir
Otros videos de esta canción
Compositor no encontrado.
Colaboración y revisión:
31 vistas
    • ½ Tono
    • A
    • Bb
    • B
    • C
    • Db
    • D
    • Eb
    • E
    • F
    • F#
    • G
    • Ab
  • Agregar a la lista

    0 comentarios

    Ver todos los comentarios
    00:00 / 00:00
    OK