Cifra Club

Caso Marcado

César Menotti e Fabiano

Cifrado: Versão 4 (guitarra y guitarra eléctrica)
tono: G
INTRO (SOLO): D C G D C G

                      D         C            G
e|----------------------------------------------------------------|
B|------8-10-12-10-8-10-12-10-8----12-13-15-15-13-12--------------|
G|--7/9-------------------------9--12-14-16-16-14-12--------------|
D|----------------------------------------------------------------|

                     D         C            G
e|----------------------------------------------------------------|
B|------8-10-12-10-8-10-12-10-8----12-13-15-15-13-12--------------|
G|--7/9-------------------------9--12-14-16-16-14-12--------------|
D|----------------------------------------------------------------|

           D    C9
Palavras de amor 
           G
jogadas ao vento
     D     C
Sua imagem
                    G
não sai do meu pensamento
                     D     C9
Ninguém me tira essa dor
                 G
Nem as marcas do tempo
                   D
O que me falta é coragem
               C
pra dizer a verdade
                G
e enfrentar o momento
            D
Só queria dizer pra você
       C9                G
Que te amo e não vejo saída
                D
Nosso caso é marcado
               C/E
Nosso amor é jurado,
             G
Você é minha vida
              D
Vê se volta correndo pra mim
      C9                 G
sem você eu não durmo direito
                    D        :
quero estar em seus braços   :
             C               :  REPETE 2X NO FINAL
E ouvir de você              :
                   G         :
Te amo de qualquer jeito     :

REPETE O SOLO DA INTRO E CONTINUA A MÚSICA
00:00 / 00:00
Otros videos de esta canción
Repetir
Otros videos de esta canción
Compositor no encontrado.
Colaboración y revisión:
51 vistas
    • ½ Tono
    • A
    • Bb
    • B
    • C
    • Db
    • D
    • Eb
    • E
    • F
    • F#
    • G
    • Ab
  • Agregar a la lista

    0 comentarios

    Ver todos los comentarios
    00:00 / 00:00
    OK