Cifra Club

Caso Marcado

César Menotti e Fabiano

Cifrado: Versão 9 (guitarra y guitarra eléctrica)
tono: G
Solo de introdução:

e|----------7---------7--------------------------------------------|
B|-----8-10---10-8-8----10-8------12-11-10-8-----------------------|
G|-7h9-----------------------9----------------7h9-7--------------7-|
D|--------------------------------12-11-10-9---------10-9-7----9---|
A|----------------------------------------------------------10-----|
E|-----------------------------------------------------------------|

e|-777------------777---------------------7---10-8-7----------------------|
B|-----10-8-8h10------10-8---------7-8-10------------10-8-7---------------|
G|-------------------------9---7-9--------------------------9-7-----------|
D|----------------------------------------------------------------10p9----|
A|---------------------------------------------------------------------10-|
E|------------------------------------------------------------------------|

             D  C            G
Palavras de amor jogadas ao vento
      D   C                     G
Sua imagem não sai do meu pensamento
                      D  C                      G
Ninguém me tira essa dor, nem as marcas do tempo
                    D                      C
O que me falta é coragem pra dizer a verdade
                G
E enfrentar o momento

            D                   C
Só queria dizer pra você que te amo.
             G                    D
E não vejo saída, nosso caso é marcado
               C                   G
Nosso amor é jurado  você é minha vida
               D                  C                   G
Vê se volta correndo pra mim sem você eu não durmo direito.
                      D                C
Quero estar em seus braços e ouvir de você
                     G
Te amo de qualquer jeito


O solo do meio tem só uma pequena variação:

e|----------7---------7--------------------------------------------|
B|-----8-10---10-8-8----10-8------12-11-10-8-----------------------|
G|-7h9-----------------------9----------------7h9-7--------------7-|
D|--------------------------------12-11-10-9---------10-9-7----9---|
A|----------------------------------------------------------10-----|
E|-----------------------------------------------------------------|

e|-777----------------777---------------------7---10-8-7----------------------|
B|-----10-8-8h10-8-10-----10-8---------7-8-10------------10-8-7---------------|
G|-----------------------------9---7-9--------------------------9-7-----------|
D|--------------------------------------------------------------------10p9----|
A|-------------------------------------------------------------------------10-|
E|----------------------------------------------------------------------------|

No acorde G há uma pequena mudança para 3x2033...
 
00:00 / 00:00
Otros videos de esta canción
Repetir
Otros videos de esta canción
Compositor no encontrado.
Colaboración y revisión:
  • Giovanni Marçal
84 vistas
    • ½ Tono
    • A
    • Bb
    • B
    • C
    • Db
    • D
    • Eb
    • E
    • F
    • F#
    • G
    • Ab
  • Agregar a la lista

    0 comentarios

    Ver todos los comentarios
    00:00 / 00:00
    OK