Cifra Club

Caso Marcado

César Menotti e Fabiano

Cifrado: Versão 7 (guitarra y guitarra eléctrica)
tono: G
base do solo: (G D C G)2x


E|---------7----------7----------10-9---8--7----------------|   
B|--------8-10----10-8-10------108------12--11-10--8--------|   
G|--7/9-----------------------9-------------9-7-------------|    
D|---------------------------------------------10--9--7-----|  
A|-----------------------------------------------------10---|  
E|----------------------------------------------------------|    

E|---------7---------7----------------------7-10-8-7------------|      
B|------8--10----10-810--------10---8--------810----------8-----|    
G|--7-------------------------9---9------------------9-7--------| 
A|---------------------------------------------------------10---|  
E|--------------------------------------------------------------|  

G                   D C
      Palavras de amor
                   G
      Jogadas ao vento
               D   C
       Sua imagem, 
                       G
  Não sai do meu pensamento
                     D  C
Ninguém me tira esta dor
                  G
Nem as marcas do tempo
                    D
O que me falta é coragem
               C
Pra dizer a verdade
                 G
E enfrentar o momento..

            D
Só queria dizer pra você
        C               G
Que te amo e não vejo saída
                D
Nosso caso é marcado 
               C
 Nosso amor é jurado
             G
Você é minha vida
               D
Vê se volta correndo pra mim
       C                G
 Sem você eu não durmo direito.
                     D
Quero estar  em seus braços 
             C
E ouvir de você
                  G
Te amo de qualquer jeito
00:00 / 00:00
Otros videos de esta canción
Repetir
Otros videos de esta canción
Compositor no encontrado.
Colaboración y revisión:
  • Tarcísio Xavier
6 vistas
    • ½ Tono
    • A
    • Bb
    • B
    • C
    • Db
    • D
    • Eb
    • E
    • F
    • F#
    • G
    • Ab
  • Agregar a la lista

    0 comentarios

    Ver todos los comentarios
    00:00 / 00:00
    OK