Cifra Club

Aprenda

Foi Tudo Engano

César Menotti e Fabiano

Tablatura: Principal (guitarra)
Tom: F
Intro:
        F          C         Dm        Am       Bb    Am   Gm           F             C
E|---5----5-5-------6-5------------------5-----------------------------------------------|
B|-3---6------8-6-8-----8-5/6--6-6-5---5---5-----5-6---5-6-------------------------------|
G|-----------------------------------7-------5-7-----5-----3--3-3-3-2---0-2--------------|
D|--------------------------------------------------------------------3-----3----0-2-3/5-|
A|-----------------------------------------------------------------------------3---------|
E|---------------------------------------------------------------------------------------|

F              C
Ela ligou era de madrugada
 Dm              Am
Estava chorando e desesperada
Bb         Am        Gm
 Diz que se arrependeu
          C7   B|-6-5-|
Pediu perdão

F                   C
Quando ela veio acabando comigo
Dm                   Am
Nem percebeu que eu chorava escondido

         B|-8-8/10-11-10h11p10-|

 Bb      Am           Gm          C7
Por desespero, por medo da solidão    B|-5--5-6--6-5-|

          Bb              C
Quando a gente não tem certeza

          Am                Dm
Do que quer ou o que vai falar
     Bb                  C
As palavras da boca pra fora
             F   F7
Só faz machucar
         Bb                  C
A gente tava tão bem, numa boa
     Am                  Dm
Vem você com este seu desatino
         Bb               C           F     C  B|---6---5-|
De uma hora prá outra mudou o nosso destino   G|-5---5---|

Refrão:
         F              C
Mas que bom que já percebeu
         Dm          Am
Que seu amor ainda sou eu
          Bb         Am          Gm
E vai voltar pra ficar e me amar
                C7
Que foi tudo engano
         F               C
Vão brilhar estrelas no céu
         Dm
Quero sentir
              Am         Bb
Seu corpo no meu adormecer
         Am        Gm  C7
Nos teus braços e ver
            F
Como eu te amo
        F          C         Dm        Am       Bb    Am   Gm           F             C
E|---5----5-5-------6-5------------------5-----------------------------------------------|
B|-3---6------8-6-8-----8-5/6--6-6-5---5---5-----5-6---5-6-------------------------------|
G|-----------------------------------7-------5-7-----5-----3--3-3-3-2---0-2--------------|
D|--------------------------------------------------------------------3-----3---3-2-0----|
A|---------------------------------------------------------------------------------------|
E|---------------------------------------------------------------------------------------|

          Bb              C
Quando a gente não tem certeza

          Am                Dm
Do que quer ou o que vai falar
     Bb                  C
As palavras da boca pra fora
             F   F7
Só faz machucar
         Bb                  C
A gente tava tão bem, numa boa
     Am                  Dm
Vem você com este seu desatino
         Bb               C           F     C  B|---6---5-|
De uma hora prá outra mudou o nosso destino   G|-5---5---|

Refrão:
         F              C
Mas que bom que já percebeu
         Dm          Am
Que seu amor ainda sou eu
          Bb         Am          Gm
E vai voltar pra ficar e me amar
                C7
Que foi tudo engano
         F               C
Vão brilhar estrelas no céu
         Dm
Quero sentir
              Am         Bb
Seu corpo no meu adormecer
         Am        Gm  C7
Nos teus braços e ver
            F
Como eu te amo

         F              C
Mas que bom que já percebeu
         Dm          Am
Que seu amor ainda sou eu
          Bb         Am          Gm
E vai voltar pra ficar e me amar
                C7
Que foi tudo engano
         F               C
Vão brilhar estrelas no céu
         Dm
Quero sentir
              Am         Bb
Seu corpo no meu adormecer
         Am        Gm  C7
Nos teus braços e ver
            F
Como eu te amo

E|---5---|
B|-3---6-|
39 reproducciones
    • ½ Tom
    • A
    • Bb
    • B
    • C
    • Db
    • D
    • Eb
    • E
    • F
    • F#
    • G
    • Ab
  • Adicionar à lista

    0 comentarios

    Mostrar mais comentários

    ¿Conseguiste tocar?

    2 Tocaron 0 Ainda não

    Grave um vídeo tocando Foi Tudo Engano e mande pra gente!

    00:00 / 00:00
    outros vídeos desta música
    repetir qualidade Automático
    Outros vídeos desta música
    00:00 / 00:00
    Automático
    OK