Cifra Club

Labirinto

César Menotti e Fabiano

Cifrado: Versão 3 (guitarra y guitarra eléctrica)
Acompaña nuestras novedades de Cifra Club en español.
¡Sigue nuestro perfil en Instagram!
tono: Eb (con acordes en la forma de C) Capotraste en 3ª casa
Intro: C G Am F 
E|--------------------|
B|--------------------|
G|-10-8-6-------------|
D|--------10-8--------|
A|-------------10-8-6-|
E|--------------------|

C         G      Am                      F
Sonhos, planos, tudo aquilo que vivemos se perdeu.
C       G    Am                           F               C
Choro,choro,vou ficar com as lembranças que a gente viveu

Solo 2x: C  G  Am  F
      C           G            Am         F           C
E|---------------------------------------------------------|
B|--------8-9-9/11-9h11p9-8-------8-------9--9--9-8-6-6/8--|
G|---8-10-------------------10-10---8--8-------------------|
D|-8-------------------------------------10-10-10-8-6-6/8--|
A|---------------------------------------------------------|
E|---------------------------------------------------------|
                    G                 Am
E|-----------------11-10h11p10---------8-------------------|
B|--------8-9-9/11-------------11-11-8---8-----------------|
G|---8-10--------------------------------------------------|
D|-8-------------------------------------------------------|
A|---------------------------------------------------------|
E|---------------------------------------------------------|
         F                                Am
E|--------------------8-10-11-10h11p10-8-------------------|
B|-------------8-9-11--------------------------------------|
G|------7-8-10---------------------------------------------|
D|-8-10----------------------------------------------------|
A|---------------------------------------------------------|
E|---------------------------------------------------------|

Am                                   F
Deixa do jeito que tá, não quero explicação
Am                               F
Pode ir embora eu seguro essa separação
 C                   G                 Am   F
Deixa do jeito que tá que eu me viro sozinho
C                       G                 Am   F
Eu vou tentar te esquecer achar outro caminho

               C           G                  Am    F
Sei que não é fácil esquecer, o amor de uma vida
           C            G                   Am   F
Nesse labirinto solidão,  parece não ter saída

Refrão:
  C        G       Am                       F
Sonhos, planos, tudo aquilo que vivemos se perdeu
  C       G    Am                           F            C
Choro, choro, vou ficar com as lembranças que a gente viveu

         G   Am  F
Foi tão lindo
     C     G Am F
Foi tão bom

Solo 2x: C G  Am F
      C           G            Am         F           C
E|---------------------------------------------------------|
B|--------8-9-9/11-9h11p9-8-------8-------9--9--9-8-6-6/8--|
G|---8-10-------------------10-10---8--8-------------------|
D|-8-------------------------------------10-10-10-8-6-6/8--|
A|---------------------------------------------------------|
E|---------------------------------------------------------|
                    G                 Am
E|-----------------11-10h11p10---------8-------------------|
B|--------8-9-9/11-------------11-11-8---8-----------------|
G|---8-10--------------------------------------------------|
D|-8-------------------------------------------------------|
A|---------------------------------------------------------|
E|---------------------------------------------------------|
         F                                Am
E|--------------------8-10-11-10h11p10-8-------------------|
B|-------------8-9-11--------------------------------------|
G|------7-8-10---------------------------------------------|
D|-8-10----------------------------------------------------|
A|---------------------------------------------------------|
E|---------------------------------------------------------|

Am                                   F
Deixa do jeito que tá, não quero explicação
Am                                F
Pode ir embora eu seguro essa separação
C                    G                  Am   F
Deixa do jeito que tá que eu me viro sozinho
C                    G                 Am   F
Eu vou tentar te esquecer achar outro caminho

               C           G              Am    F
Sei que não é fácil esquecer, o amor de uma vida
           C           G                 Am   F
Nesse labirinto solidão,  parece não ter saída

Refrão 2x:
C          G     Am                      F
Sonhos, planos, tudo aquilo que vivemos se perdeu
C        G      Am                          F            C *
Choro, choro, vou ficar com as lembranças que a gente viveu

        G   Am  F
Foi tão lindo
     C     G Am F
Foi tão bom
     C           G            Am         F           C
E|---------------------------------------------------------|
B|--------8-9-9/11-9h11p9-8-------8-------9--9--9-8-6-6/8--|
G|---8-10-------------------10-10---8--8-------------------|
D|-8-------------------------------------10-10-10-8-6-6/8--|
A|---------------------------------------------------------|
E|---------------------------------------------------------|
                    G                 Am
E|-----------------11-10h11p10---------8-------------------|
B|--------8-9-9/11-------------11-11-8---8-----------------|
G|---8-10--------------------------------------------------|
D|-8-------------------------------------------------------|
A|---------------------------------------------------------|
E|---------------------------------------------------------|
         F                                Am
E|--------------------8-10-10-10h11p10-8-------------------|
B|-------------8-9-11--------------------------------------|
G|------7-8-10---------------------------------------------|
D|-8-10----------------------------------------------------|
A|---------------------------------------------------------|
E|---------------------------------------------------------|
Composición de Marco Aurelio Ferreira
Colaboración y revisión:
  • Edson Lins
15 vistas
    • ½ Tono
    • A
    • Bb
    • B
    • C
    • Db
    • D
    • Eb
    • E
    • F
    • F#
    • G
    • Ab
  • Agregar a la lista

    0 comentarios

    Ver todos los comentarios
    00:00 / 00:00
    Outros vídeos desta música
    Repetir Calidad Automático
    Outros vídeos desta música
    00:00 / 00:00
    Automático
    OK