Cifra Club

Nova York / O Que Tiver de Vir, Virá

César Menotti e Fabiano

Tab de bajo: Principal
intro
g--------------------------------
d-------2---5--------------------
a-3-3--------------------2--5----
e------------------3-3-----------

g----------------------------------
d----------------------------------
a-5--7-8-7----5--7-8-7--5--3--3-3--
e----------------------------------

g--10--8-------10---8-------  ---------
d----------10-----------10--  ---12-12-
a---------------------------  ---------
e---------------------------  ---------

versos
g------------------------------
d------------------------------
a-5-5-------------3--3--3--3---
e---------1-1------------------

refrao
g-----------------------------
d-----------------------------
a--------------3--3----3--3---
e-1-1--1-1--------------------

saudade vai vai vai
g-------------------
d-------------------
a-5--55---5-5-5-5-5-
e-------------------

g---------------------------------------------------------
d-------------------------------2---5---------------------
a------------------------3--3--------------------2---5----
e-1-1-1-1-1--111------------------------3--3--------------

g----------------------------------------------
d--------------------------------------15------
a-5--5-5--5--5-5-5-----------------------------
e----------------------1-1-1--1-1/13--------13-

solo
g------------------------------------------------------------
d------2---5-------------------------------------------------
a-3-3----------------2--5-----5---7--8-7---5-7--8-7----5--3--
e--------------3--3------------------------------------------

g-10--8--------10--8---------------------10-----------------10-----10---8-----------
d---------10----------10----12-12------------10------12-12-----10-------------10/12-
a-----------------------------------------------------------------------------------
e-----------------------------------------------------------------------------------

verso 2
g------------------------------------------------
d----------------------------2---5---------2--5--
a--2--5------0-3---------3-----------3----------- 2x
e3--------1---------3----------------------------

g-------------------------------------------
d-----2--5----------------------------------
a-3------------------4--7-----------4---7---
e-----------------5-----------5-------------

g--------------------------
d--------------------------
a-------3-4-5-5-5----------
e-1-1--------------3-3--3--
na hora de amar
g--------------------------------------------------------
d-------2--5--------2--5---------------------------------
a--3----------3-----------------4--7------------4----7---
e--------------------------5--------------5--------------

g------------------------------
d------------------------------
a--------3-4-5-5-5-------------
e-1-1----------------3--3--3---

olha, eu ja fiz td que pudia

g--------------------------------------------------------------------------------------------
d----2--5------2--5--------------------------------------------------------------------------
a-3--------3---------3--2---------2---5---------------2-5-----------------0--5---3--3-------- 2x
e---------------------------5--3--------------3-------------3--5-3--1--1----------------3-3--

e do jeito q tiver q ser vai ser
(vc faz duas vezes na segunda eh mais rapido o ritimo)
g--------------------------------------------------898---------------
d---------------------------------------------7/9-----------------
a-10/-7-7-7-7-------------------5--5-5-5-5-5-------------------
e-----------------5--5--5-5-5---------------------------3-3-3-3-3------

base do solo
g-----------------------------------------------------------------------
d-----------------------------------------------------------------------
a-10/777---------------5-5-5-55-------------------3---------3---5---3-----
e----------12/5-555555----------3-3-3-3-3-----1--------1-------------------
00:00 / 00:00
Otros videos de esta canción
Repetir
Otros videos de esta canción
Composición de CRISTIAN / Ralf
Colaboración y revisión:
  • Hector rigon
48 vistas

0 comentarios

Ver todos los comentarios

¿Lograste tocar?

0 Tocaron 0 Aún no

¡Graba un video tocando Nova York / O Que Tiver de Vir, Virá y envíanoslo!

00:00 / 00:00
OK