Cifra Club

Página de Amigos

César Menotti e Fabiano

Cifrado: Solo (guitarra y guitarra eléctrica)
tono: G
E|--1/3-3-3----1/3-1-0-0------------------------------
B|-----------------------3-3-----3/5/3-3/5/3--3-1-1---
G|-----------------------------2----------------------
D|----------------------------------------------------
A|----------------------------------------------------
E|----------------------------------------------------

E|----------------------------------------------------
B|---0-1-3-1-3/5----6-5-3-----------------------------
G|-2--------------------------------------------------
D|----------------------------------------------------
A|----------------------------------------------------
E|----------------------------------------------------

Composición de Alexandre / Rick
28 vistas
    • ½ Tono
    • A
    • Bb
    • B
    • C
    • Db
    • D
    • Eb
    • E
    • F
    • F#
    • G
    • Ab
  • Agregar a la lista

    0 comentarios

    Ver todos los comentarios

    ¿Lograste tocar?

    1 Tocaron 0 Aún no

    ¡Graba un video tocando Página de Amigos y envíanoslo!

    00:00 / 00:00
    Outros vídeos desta música
    Repetir Calidad Automático
    Outros vídeos desta música
    00:00 / 00:00
    Automático
    OK