Cifra Club

Retrato

César Menotti e Fabiano

Cifrado: Principal (guitarra y guitarra eléctrica)
tono: C
Intro:
E|---------12--------------|
B|------13----13-----------|
G|---14--------------------|  (8x)
D|-------------------------|
A|-------------------------|
E|-------------------------|

E|---------12--------------|
B|------13----13-----------|
G|---14--------------------|
D|-------------------------|
A|-------------------------|
E|-------------------------|

                 Am  F  G
Eu só penso em você (iê iê)
   Em              Am  F  G
Eu só sei amar você, (iê iê)

Intro 2x: Am  F  G

Am                    F                   G             Em
 Hoje eu chorei em meu quarto ao vêr seu retrato lindo, na parede
Am         F                    G
 É tanta saudade que no peito invade amor, grito seu nome
F          G              C      G      F
 Tento disfarçar, mas não sei co-mo fugir
             G         Am
 Sem você não dá, onde você se esconde?

Am             F                   G              Em
 Chego do trabalho, tomo um banho e saio a noite, novamente
Am         F                G
 A te procurar, prometo te dar amor eternamente
F          G           C     G     F
 Quero te falar que eu já me de-ci-di
                  E
 Com você vou ser feliz

Refrão:
Am                 F          G
 É com você que vou viver essa paixão
                      Em         Am
 Eu sou completamente louco por você
                     F             G
 Eu não consigo nem pensar em solidão
       Em         Am  F  G
 Eu só penso em você (iê iê)
       Em         Am  F  G
 Eu só sei amar você, (iê iê)

Intro 2x: Am  F  G

Am                    F                   G             Em
 Hoje eu chorei em meu quarto ao vêr seu retrato lindo, na parede
Am         F                    G
 É tanta saudade que no peito invade amor, grito seu nome
F          G              C      G      F
 Tento disfarçar, mas não sei co-mo fugir
             G         Am
 Sem você não dá, onde você se esconde?

Am             F                   G              Em
 Chego do trabalho, tomo um banho e saio a noite, novamente
Am         F                G
 A te procurar, prometo te dar amor eternamente
F          G           C     G     F
 Quero te falar que eu já me de-ci-di
                  E
 Com você vou ser feliz

Refrão 2x:
 Am                 F          G
 É com você que vou viver essa paixão
                      Em          Am
 Eu sou completamente louco por você
                      F             G
 Eu não consigo nem pensar em solidão
       Em          Am  F  G
 Eu só penso em você, (iê iê)
       Em          Am  F  G
 Eu só sei amar você, (iê iê)
E|----------12-------------|
B|-------13----13----------|
G|----14-------------------|  (8x)
D|-------------------------|
A|-------------------------|
E|-------------------------|

E|----------12-------------|
B|-------13----13----------|
G|----14-------------------|
D|-------------------------|
A|-------------------------|
E|-------------------------|
00:00 / 00:00
Otros videos de esta canción
Repetir
Otros videos de esta canción
Compositor no encontrado.
Colaboración y revisión:
240 vistas
    • ½ Tono
    • A
    • Bb
    • B
    • C
    • Db
    • D
    • Eb
    • E
    • F
    • F#
    • G
    • Ab
  • Agregar a la lista

    0 comentarios

    Ver todos los comentarios
    00:00 / 00:00
    OK