Cifra Club

Se o Rei Mandar

César Menotti e Fabiano

Cifrado: Principal (guitarra y guitarra eléctrica)
tono: C
(intro) C Am7 Dm G C

E |---7-7-7--8--10-10--8--7-7----7-7-7--8--10-10--8--7-7----8--8--8---10-12-12--10-8--8---
B |---8-8-8--10-12-12--10-8-8----8-8-8--10-12-12--10-8-8----10-10-10--12-13-13--12-10-10--
G |---------------------------------------------------------------------------------------
D |---------------------------------------------------------------------------------------
A |---------------------------------------------------------------------------------------
E |---------------------------------------------------------------------------------------

E |---7-7-7--8--10-10---------------------------------------------------------------------
B |---8-8-8--10-12-12---------------------------------------------------------------------
G |---------------------------------------------------------------------------------------
D |---------------------------------------------------------------------------------------
A |---------------------------------------------------------------------------------------
E |---------------------------------------------------------------------------------------

C                             G/B
Vamos fazer uma brincadeira agora
                Am7
Voltar a ser criança
              Am7/G
Pegue a minha mão
                  F
Vamos entrar na dança
       G
Tão gostoso era quando a paixão
        C9  G F
Era só mel
C9
Eu te pergunto
          G/B
Você me responde
                  Am7
mas não é pique-esconde
          Am7/G
Não fuja de mim
              F
Quero você aqui
                   G
Esta sempre do seu lado
                C    E7
Ontem,hoje e amanha
                  Am
Seu rei mandou dizer
Que não me deixe
Que me dê carinho
                Em
Que você me aqueça
Quando estiver frio
F
E quem não for apanha
 G                     C  E7
Saudade não tem graça,não
               Am
Seu rei mandou dizer
Que você pense
Pense direitinho
               Em
Vem,meu beija-flor
me leva pro seu ninho
F
E se bater as asas
G                    C
Que voe em minha direção
F       G             C
Se o rei mandar
me amar,me amar
           G
E você não for me amar,me amar (2x)
             Am
Vai fazer chorar
          F
O meu coração
 G                      C
mas seu castigo é a solidão

Se o rei mandar...
Composición de Crintian Lima / Elvis Pires / Ivo Lima / Rodrigo Mell
Colaboración y revisión:
  • Evandro Martins
  • felipe augusto
  • Santa Claus
69 vistas
    • ½ Tono
    • A
    • Bb
    • B
    • C
    • Db
    • D
    • Eb
    • E
    • F
    • F#
    • G
    • Ab
  • Agregar a la lista

    0 comentarios

    Ver todos los comentarios

    ¿Lograste tocar?

    2 Tocaron 0 Aún no

    ¡Graba un video tocando Se o Rei Mandar y envíanoslo!

    00:00 / 00:00
    Outros vídeos desta música
    Repetir Calidad Automático
    Outros vídeos desta música
    00:00 / 00:00
    Automático
    OK