Cifra Club

Tarde Demais

César Menotti e Fabiano

Cifrado: Versão 3 (guitarra y guitarra eléctrica)
tono: Am
E|--------------|--------------|--------------|----------4---|--3-------3---|
B|--------------|--------------|--------------|----------6---|--5-------3---|
G|--------------|--------------|--------------|----------5---|--5-------4---|
D|--------------|--------------|--------------|--------------|--------------|
A|--------------|--------------|--------------|--------------|--------------|
E|--------------|--------------|--------------|--------------|--------------|

E|----------4---|--3-------3---|----------4---|--3-------3---|--0-----------|
B|--6-------6---|--5-------0---|--6-------6---|--5-------3---|----------6---|
G|--7-------5---|--5-------7---|--7-------5---|--5-------4---|--5-------5---|
D|--7-----------|--------------|--7-----------|--------------|--7-------7---|
A|--------------|--------------|--------------|--------------|--------------|
E|--------------|--------------|--------------|--------------|--------------|

E|--3-------3---|--0-----------|--3-------3---|--0-----------|--3-------3---|
B|--5-------3---|----------6---|--5-------3---|----------6---|--5-------3---|
G|--5-------4---|--5-------5---|--5-------4---|--5-------5---|--5-------4---|
D|--------------|--7-------7---|--------------|--7-------7---|--------------|
A|--------------|--------------|--------------|--------------|--------------|
E|--------------|--------------|--------------|--------------|--------------|

E|--0-------1---|--------------|--3-------1---|--0-------1---0-|--------------|
B|--1-------1---|--3-------1---|--3-------1---|--1-------1---0-|--3-----------|
G|--2-------2---|--2-------2---|--4-------2---|--0-------2---0-|--2-----------|
D|--------------|--3-------3---|--------------|----------------|--3-----------|
A|--------------|--------------|--------------|----------------|--------------|
E|--------------|--------------|--------------|----------------|--------------|

E|--3-----------|--------------|--0-------3---|--0-----------|--------------|
B|--3-----------|--6-----------|----------3---|--------------|--------------|
G|--4-----------|--5-----------|--5-------4---|--5-----------|--------------|
D|--------------|--7-------6---|--5-----------|--7-----------|--------------|
A|--------------|--------------|--------------|--------------|--------------|
E|--------------|--------------|--------------|--------------|--------------|

E|--------------|--------------|--8-------7---|--8-------9---|--10------8---|
B|--------------|--------------|--8-------8---|--10------8---|--10------10--|
G|--------------|--------------|--9-------7---|--9-------9---|--10------10--|
D|--------------|--------------|--------------|--------------|--------------|
A|--------------|--------------|--------------|--------------|--------------|
E|--------------|--------------|--------------|--------------|--------------|

E|--7-----------7-|--8-------7---|--8-------9---|--10------8---|--7-----------7-|
B|--8-------10--8-|--8-------8---|--10------8---|--10------10--|--8-------10--8-|
G|--7-------10--7-|--9-------7---|--9-------9---|--10------10--|--7-------10--7-|
D|----------10----|--------------|--------------|--------------|----------10----|
A|----------------|--------------|--------------|--------------|----------------|
E|----------------|--------------|--------------|--------------|----------------|

E|--8-------7---|----------8---|--8-------7---|----------8---|--0-----------|
B|--8-------8---|--10------9---|--8-------8---|--10------9---|--8-------8---|
G|--9-------9---|--10------10--|--9-------9---|--10------10--|----------7---|
D|--------------|--10----------|--------------|--10----------|--10------9---|
A|--------------|--------------|--------------|--------------|--------------|
E|--------------|--------------|--------------|--------------|--------------|

E|----------4---|--3-------3---|----------4---|--3-------3---|--0-----------|
B|--6-------6---|--5-------3---|--6-------6---|--5-------3---|----------6---|
G|--7-------5---|--5-------4---|--7-------5---|--5-------4---|--5-------5---|
D|--7-----------|--------------|--7-----------|--------------|--7-------7---|
A|--------------|--------------|--------------|--------------|--------------|
E|--------------|--------------|--------------|--------------|--------------|

E|--3-------3---|--0-----------|--3-------3---|--0-----------|--3-------3---|
B|--5-------3---|----------6---|--5-------3---|----------6---|--5-------3---|
G|--5-------4---|--5-------5---|--5-------4---|--5-------5---|--5-------4---|
D|--------------|--7-------7---|--------------|--7-------7---|--------------|
A|--------------|--------------|--------------|--------------|--------------|
E|--------------|--------------|--------------|--------------|--------------|

E|--0-------1---|--------------|--3-------1---|--0-------1---0-|--------------|
B|--1-------1---|--3-------1---|--3-------1---|--1-------1---0-|--3-----------|
G|--2-------2---|--2-------2---|--4-------2---|--0-------2---0-|--2-----------|
D|--------------|--3-------3---|--------------|----------------|--3-----------|
A|--------------|--------------|--------------|----------------|--------------|
E|--------------|--------------|--------------|----------------|--------------|

E|--3-----------|--------------|--0-------3---|--0-----------|--------------|
B|--3-----------|--6-----------|----------3---|--------------|--------------|
G|--4-----------|--5-----------|--5-------4---|--5-----------|--------------|
D|--------------|--7-------6---|--5-----------|--7-----------|--------------|
A|--------------|--------------|--------------|--------------|--------------|
E|--------------|--------------|--------------|--------------|--------------|

E|--------------|--------------|--8-------7---|--8-------9---|--10------8---|
B|--------------|--------------|--8-------8---|--10------8---|--10------10--|
G|--------------|--------------|--9-------7---|--9-------9---|--10------10--|
D|--------------|--------------|--------------|--------------|--------------|
A|--------------|--------------|--------------|--------------|--------------|
E|--------------|--------------|--------------|--------------|--------------|

E|--7-----------7-|--8-------7---|--8-------9---|--10------8---|--7-----------7-|
B|--8-------10--8-|--8-------8---|--10------8---|--10------10--|--8-------10--8-|
G|--7-------10--7-|--9-------7---|--9-------9---|--10------10--|--7-------10--7-|
D|----------10----|--------------|--------------|--------------|----------10----|
A|----------------|--------------|--------------|--------------|----------------|
E|----------------|--------------|--------------|--------------|----------------|

E|--8-------7---|----------8---|--8-------7---|----------8---|--8-------7---|
B|--8-------8---|--10------9---|--8-------8---|--10------9---|--8-------8---|
G|--9-------9---|--10------10--|--9-------9---|--10------10--|--9-------9---|
D|--------------|--10----------|--------------|--10----------|--------------|
A|--------------|--------------|--------------|--------------|--------------|
E|--------------|--------------|--------------|--------------|--------------|

E|----------8---|--8-------7---|----------8---|--0-----------|--------------|
B|--10------9---|--8-------8---|--10------9---|--8-------8---|--6-------9---|
G|--10------10--|--9-------9---|--10------10--|----------7---|--7-------10--|
D|--10----------|--------------|--10----------|--10------9---|--7-------10--|
A|--------------|--------------|--------------|--------------|--------------|
E|--------------|--------------|--------------|--------------|--------------|

00:00 / 00:00
Otros videos de esta canción
Repetir
Otros videos de esta canción
Composición de Dorgival Dantas
Colaboración y revisión:
  • Helon Oliveira
4 vistas
    • ½ Tono
    • Am
    • Bbm
    • Bm
    • Cm
    • C#m
    • Dm
    • Ebm
    • Em
    • Fm
    • F#m
    • Gm
    • G#m
  • Agregar a la lista

    0 comentarios

    Ver todos los comentarios
    00:00 / 00:00
    OK