Cifra Club

Telefone mudo

César Menotti e Fabiano

Cifrado: Principal (guitarra y guitarra eléctrica)
tono: G
Intro:
   G      C                       G                                   D               C
e|--------2-2-3-3-3-3-3-2-3-3-5-5-777778-8-8-8-8-10101010101212121212-14-14--14-12-12-10-10-9--10--
b|--------3-3-5-5-5-5-5-3-5-5-7-7-88888101010101012121212121313131313-15-15--15-13-13-12-12-10-12--
g|-------------------------------------------------------------------------------------------------
d|-------------------------------------------------------------------------------------------------
a|---0-2-------------------------------------------------------------------------------------------
E|-3-----------------------------------------------------------------------------------------------
   D         G           VERSO:        C                   G               D         C
e|----------------------------/--------0-0-0-0-0-3-3-3-3-3-----------------2-2-2-2-2-0-0-0-0-0--
b|-12/13-10--8-8-8------------/--------1-1-1-1-1-1-1-1-1-1-3-3-3-3-3-3-3-3-3-3-3-3-3-1-1-1-1-1--
g|-----------7-7-7------------/--------0-0-0-0-0-0-0-0-0-0-0-0-0-0-0-0-0-0-2-2-2-2-2-0-0-0-0-0--
d|-----------5-5-5------0-2-3-/--------2-2-2-2-2-2-2-2-2-2-0-0-0-0-0-0-0-0-0-0-0-0-0-2-2-2-2-2--
a|-----------------0-2-3------/--0-2---3-3-3-3-3-3-3-3-3-3-2-2-2-2-2---0-2-----------3-3-3-3-3--
E|----------------------------/3---------------------------3-3-3-3-3-3--------------------------

REFRAO:                      D                   C        G                    D         C
e|--10-9--7-9--7-5-7-5-3-5-3-2-2-2-2-2-2-2-2-2-2-0-0-0-0-0-3-3-3-3-3-3-3-3-3-3-2-2-2-2-2-0-0-0-0-0
b|--12-10-9-10-9-7-9-7-5-7-5-3-3-3-3-3-3-3-3-3-3-1-1-1-1-1-3-3-3-3-3-3-3-3-3-3-3-3-3-3-3-1-1-1-1-1
g|---------------------------2-2-2-2-2-2-2-2-2-2-0-0-0-0-0-0-0-0-0-0-0-0-0-0-0-2-2-2-2-2-0-0-0-0-0
d|---------------------------0-0-0-0-0-0-0-0-0-0-2-2-2-2-2-0-0-0-0-0-0-0-0-0-0-0-0-0-0-0-2-2-2-2-2
a|-----------------------------------------------3-3-3-3-3-2-2-2-2-2-2-2-2-2-2-----------3-3-3-3-3
E|---------------------------------------------------------3-3-3-3-3-3-3-3-3-3--------------------
    G                        D                   C         G                   D         C       G
e|--10-9--7-9--7-5-7-5-3-5-3-2-2-2-2-2-2-2-2-2-2-0-0-0-0-0-3-3-3-3-3-3-3-3-3-3-2-2-2-2-2-0-0-2-2-3-
b|--12-10-9-10-9-7-9-7-5-7-5-3-3-3-3-3-3-3-3-3-3-1-1-1-1-1-3-3-3-3-3-3-3-3-3-3-3-3-3-3-3-1-1-3-3-3-
g|---------------------------2-2-2-2-2-2-2-2-2-2-0-0-0-0-0-0-0-0-0-0-0-0-0-0-0-2-2-2-2-2-0-0-2-2-0-
d|---------------------------0-0-0-0-0-0-0-0-0-0-2-2-2-2-2-0-0-0-0-0-0-0-0-0-0-0-0-0-0-0-2-2-0-0-0-
a|-----------------------------------------------3-3-3-3-3-2-2-2-2-2-2-2-2-2-2-----------3-3-----2-
E|---------------------------------------------------------3-3-3-3-3-3-3-3-3-3-------------------3-

A música aumenta um tom, e as varições são as mesmas!
Compositor não encontrado.
Colaboración y revisión:
  • Rafael
327 vistas
    • ½ Tono
    • A
    • Bb
    • B
    • C
    • Db
    • D
    • Eb
    • E
    • F
    • F#
    • G
    • Ab
  • Agregar a la lista

    0 comentarios

    Ver todos los comentarios
    00:00 / 00:00
    Outros vídeos desta música
    Repetir Calidad Automático
    Outros vídeos desta música
    00:00 / 00:00
    Automático
    OK