Cifra Club

Aprenda

Tô Morrendo de Saudade

César Menotti e Fabiano

Tablatura: Versão 2 (guitarra)
Tom: G
Intro: G D C# Bm Em  2x (G F# A7) D
E|---------------------------------------------------:
B|---------------------------------------------------:
G|---------------------------------------------------:
D|-----4-4-4-4-4-4-5-7-7---5-5-5-5-5-4-2-5-4-2-0-----:
A|---------------------------------------------------:
E|---------------------------------------------------:

E|-------------------------------------2-------------:
B|-------------------------------------3-------------:
G|-------------------------4-2---4-2---2-------------:
D|-----4-4-4-5-4-2-0-2-2-4-5-4-2-5-4-2-0-------------:
A|---------------------------------------------------:
E|---------------------------------------------------:

D
Quando a gente terminou
Nosso caso de amor
                     A7
Eu pensei que estava livre
                     Em
Que eu iria me dar bem
                    A7
Encontrando outro alguém
                           D   A7
Que me desse o que eu nao tive
               D
Eu saí pelo escuro
                      D7
Dando a cara contra o muro
                 G
Inventando mil paixões
                D/F#
Eu brinquei de ser feliz
                     A7
Na verdade o que eu fiz 
              D    
Foi viver desilusões
D7                   G    A/G     :
Eu tô morrendo de saudade         :
                    D/F# F#m Bm7   :
Eu tô pedindo pra voltar          :
                   Em             :
Preciso tanto lhe dizer           : -- REFRÃO (2x)
              G                   :
Que longe de voce                 :
          A          D            :
Nao dei conta de aguentar         :

REPETE INTRODUÇÃO

                  D
Muitas bocas eu beijei
                   D7
Te confesso nao gostei
                        G
Poisa nao tinha o mesmo gosto
                  D/F#
Eu tentei mil aventuras
                     A7
Mas por dentro da moldura
                D
Eu só via o seu rosto

::REFRÃO:: (2x)
RIFF2: G Bb C D

Obs: tente fazer um pout-porri desta canção com Dizem que um homen não deve chorar do Bruno e Marrone 
que fica muito legal.
Colaboración y revision:
  • Vinicius Rodrigues
  • alessandro batista
5 reproducciones
    • ½ Tom
    • A
    • Bb
    • B
    • C
    • Db
    • D
    • Eb
    • E
    • F
    • F#
    • G
    • Ab
  • Adicionar à lista

    0 comentarios

    Mostrar mais comentários

    ¿Conseguiste tocar?

    0 Tocaron 0 Ainda não

    Grave um vídeo tocando Tô Morrendo de Saudade e mande pra gente!

    00:00 / 00:00
    outros vídeos desta música
    repetir qualidade Automático
    Outros vídeos desta música
    00:00 / 00:00
    Automático
    OK