Cifra Club

Você vai ver

César Menotti e Fabiano

Cifrado: Versão 2 (guitarra y guitarra eléctrica)
tono: F
e|-------------------8-------|-------------5----------
b|-10-10-11-10-8-6-8---8-5-6-|-6-8-6-5---5---5--------
g|---------------------------|---------7-------6-7----
d|---------------------------|------------------------
a|---------------------------|------------------------
E|---------------------------|------------------------

e|------------------------|----------------------------
b|------------------------|----------------------------
g|---------------------10-|-----------9-10-10/12-10----
D|---8-12-10-8-10-9/10----|-8-8-8-7-8------------------
a|-8----------------------|----------------------------
E|------------------------|----------------------------

e|-8-8-8-6-5-------------------------------------------
b|-----------8-6-5-6-5-3-------------------------------
g|-----------------------5-3-2-------------------------
d|-----------------------------5-3-2-3-----------------
a|-----------------------------------------------------
E|-----------------------------------------------------

F              C             Dm     C  Bb
Voce pode encontrar muitos amores
                 F                Gm   F  C
Mais sei que você vai lembrar de mim
        A7            Dm
Pois sempre que o outro te tocar
           Bb              F
Na hora você pode se entregar
                    C                F                C   F
Mais não vai me esquecer nem mesmo assim

             C               Dm      C  Bb
Você pode ganhar milhões de beijos
                      F             Gm    C
Mais ninguém vai te dar o que eu te dei
                  A7          Dm
Podem até te dar algum prazer
             Bb            F
Mas posso até jurar você vai ver
                    C                F    C
Que ninguém vai te amar como eu te amei

(Refrão)
         F            C          Dm
Eu vou ficar, guardado no seu coração              
         F7        Bb          F              C
Na noite fria solidão, saudade vai chamar meu nome
         F              C          Dm
Eu vou ficar, num verso triste de paixão
        F7          Bb           F         C
Em cada sonho de verão, no toque do seu telefone
         F     F C F7 Bb F C F C F 
Você vai ver...
Compositor não encontrado.
Colaboración y revisión:
  • Santa Claus
310 vistas
    • ½ Tono
    • A
    • Bb
    • B
    • C
    • Db
    • D
    • Eb
    • E
    • F
    • F#
    • G
    • Ab
  • Agregar a la lista

    0 comentarios

    Ver todos los comentarios
    00:00 / 00:00
    Outros vídeos desta música
    Repetir Calidad Automático
    Outros vídeos desta música
    00:00 / 00:00
    Automático
    OK