Cifra Club

Nos van a pagar

Chabelos

Cifrado: Principal (guitarra y guitarra eléctrica)
tono: A
Intro: A
A
APDAYC APDAYC! Ahora soy legal!
                                                     E
He escrito en limpio todo mis temas en su ficha registral
                            A
La cuota pagué, tengo mi carnet
      E                     D           A
Tengo ilusión que algún día pronto cobraré

A
APDAYC APDAYC! Ahora soy legal!
                                                 E
Estoy orgulloso de pertenecer a este nuestro comité
                            A
La cuota pagué, tengo mi carnet
             E               D                  A
Cuando yo me muera todos mis temas herencia dejaré

       D                               A
Asociación Peruana De Autores Y Compositores
             E                A
haber si por esta nos van a pagar!
           D                                         A
Si a algún pastrulo se le ocurre un día tocar mis canciones
             E                 A
Haber si por estas nos van a pagar!

Solo de Guitarra:
E|----------------------------------| x2 veces
B|----------------------------------|
G|----14-16-14--14-14-14--14-14-14--|
D|-16-------------------------------|
A|----------------------------------|
E|----------------------------------|

E|----------------------------------------------------|
B|------------------------------15b(17)...r15h14------|
G|----14-16-16-16b(18)...18r(16)----------------p16v--|
D|-16-------------------------------------------------|
A|----------------------------------------------------|

E|------------------------------------|-------------------------------------|
B|------------------------------------|-------------------------------------|
G|------------------------------------|-------------------------------------|
D|----14-16-18-16--16-16-16--16-16-16-|-16-18-19-16-18--18-18-18--18-18-18--|
A|-16---------------------------------|-------------------------------------|
E|------------------------------------|-------------------------------------|
E|------------------------------------|-------------------------------------|

E|----------------------------------------------------------|
B|----------------------------------------------------------|
G|----------------------------------------------------------|
D|-14-16-18-16--16-16-16-18-19-19-19-18-18-18-16-16-14-12v--|
A|----------------------------------------------------------|
E|----------------------------------------------------------|
E|----------------------------------------------------------|

       D                               A
Asociación Peruana De Autores Y Compositores
             E                A
haber si por esta nos van a pagar!
           D                                         A
Si a algún pastrulo se le ocurre un día tocar mis canciones
             E                 A
Haber si por estas nos van a pagar!


(Aca se toca un solo rasgueo por nota y se deja sonar)
A
APDAYC APDAYC! (APDAYC APDAYC!)
            A
Ahora soy legal! (Ahora soy legal!)
              A                                      E
He escrito en limpio todo mis temas en su ficha registral
(En su ficha registral!)
           E
La cuota pagué (La cuota pagué!) ,
            A
Tengo mi carnet (Tengo mi carnet!)
      E                     D           A
Tengo ilusión que algún día pronto cobraré

       D                               A
Asociación Peruana De Autores Y Compositores
             E                A
haber si por esta nos van a pagar!
           D                                         A
Si a algún pastrulo se le ocurre un día tocar mis canciones
             E                 A
Haber si por estas nos van a pagar!

D                               A
Asociación Peruana De Autores Y Compositores
             E                A
haber si por esta nos van a pagar!
           D                                         A
Si a algún pastrulo se le ocurre un día tocar mis canciones
             E                 A
Haber si por estas nos van a pagar!
A
Nos van a pagaaaar! Nos van a pagaaaar!

(Aquí va el sonidito de mierda del final)

E|---------------|
B|---------------|
G|---------------|
D|-7---------7-7-|
A|--8-8-8-7--7-7-|
E|-----------5-5-|
Composición de Los Chabelos
2 vistas
    • ½ Tono
    • A
    • Bb
    • B
    • C
    • Db
    • D
    • Eb
    • E
    • F
    • F#
    • G
    • Ab
  • Agregar a la lista

    0 comentarios

    Ver todos los comentarios

    ¿Lograste tocar?

    0 Tocaron 0 Aún no

    ¡Graba un video tocando Nos van a pagar y envíanoslo!

    00:00 / 00:00
    Outros vídeos desta música
    Repetir Calidad Automático
    Outros vídeos desta música
    00:00 / 00:00
    Automático
    OK