Cifra Club

Quien te dijo

Chabelos

Cifrado: Principal (guitarra y guitarra eléctrica)
tono: D
         G5                       D5
Quien te dijo que el futuro no lo podrías creer
        C5                        G5
que la guerra y la tortura las verías en TV
        C5           D5         E5
quien sabia que las torres volarían entre si
          A5                        D5
que el petróleo valdría mas que el pueblo iraki .

         G5                     D5
quien te dijo que la bomba no seria destrucción
        C5                      G5
que los químicos serian nuestra exterminación
        C5            D5          E5
quien sabría que el imperio iba a desaparecer
     A5                    D5
para que con globalización nos quieran joder

Coro:

C5             G5
que es la vida solo un frenesí
E|----------|
B|----------|
G|--5-4-2v--|
D|----------|
A|----------|
E|----------|
A5              D5
y los sueños solo sueños son
C5                G5
que es la muerte una meta mas
E|----------|
B|----------|
G|--5-4-2v--|
D|----------|
A|----------|
E|----------|
A5                       D5
aunque no te guste todos vamos a llegar!

         G5                       D5
quien te dijo que entre clones íbamos a convivir
        C5               G5
que solo eras ADN o con suerte DNI
        C5          D5          E5
quien sabría que la vida no tendría mas valor
       A5                      D5
que la cantidad de ceros en tu cuenta de ahorros

         G5                     D5
quien te dijo que algún día vivirías con terror
        C5                 G5
que acostarte con el cuero que te provoco
        C5           D5            E5
quien sabría que el amor iba a encerrarse en un condón
       A5                         D5
que si lo hacías con perras ya tu vida se acabo

Repetir el Coro!

Solo de Guitarra Principal! xD

E|-------------------------|----------------------------|
B|-------------------------|----------------------------|
G|-14b(16)(16)(16)16r14-12-|-12-14b(16)(16)(16)16r14-12-|
D|-------------------------|----------------------------|
A|-------------------------|----------------------------|
E|-------------------------|----------------------------|

                        [Tremolo------------------------]
E|-----------------------12-12-12-12-12-14-14-14-14-14--|
B|-------------------15| V--------------------------------|
G|-12-14b16r14h16-16------------------------------------|
D|------------------------------------------------------|
A|------------------------------------------------------|
E|------------------------------------------------------|

E|-14-15-14-15-14-15/19-19| V-|-19-19-19-19-12-14---------|
B|--------------------------|-------------------15------|
G|--------------------------|---------------------------|
D|--------------------------|---------------------------|
A|--------------------------|---------------------------|
E|--------------------------|---------------------------|
                                   2da Guitarra
E|--------------------------------|------------|
B|--------------------------------|------------|
G|--------------------------------|---5-4-2----|
D|-(7)/10v-9-10-12--10-10-10-9----|------------|
A|-----------------------------10-|------------|
E|--------------------------------|------------|

E|-----------------------------|
B|-----------------------------|
G|----------9-11-9-7-7-7-6-7v--|
D|-----------------------------|
A|-(5)/7v-7--------------------|
E|-----------------------------|
                                   2da Guitarra
E|--------------------------------|------------|
B|--------------------------------|------------|
G|--------------------------------|---5-4-2----|
D|-(7)/10v-9-10-12--10-10-10-9----|------------|
A|-----------------------------10-|------------|
E|--------------------------------|------------|

E|-----------------------------|
B|-----------------------------|
G|----------9-11-9-7-7-7-6-7v--|
D|-----------------------------|
A|-(5)/7v-7--------------------|
E|-----------------------------|

Sin guitarra:

que es la vida solo un frenesí
y los sueños solo sueños son
que es la muerte una meta mas
aunque no nos guste todos vamos a llega!

C5        G5
el futuro ya está aquí ya llego
A5                       D5
aunque no te guste no te queda salvación
C5        G5
el futuro ya está aquí, nos cogió
A5                   D5
vamos a vivirlo como nos venga mejor, si señor!!

Solo Final! xD

E|----------------------------------------------|
B|--------12-12h13-12------------12-12h13-12----|
G|-/12-14-------------14---12-14-------------14-|
D|----------------------------------------------|
A|----------------------------------------------|
E|----------------------------------------------|

E|----------------------------------------------|
B|--------12-12h13-12------------12-12h13-12v---|
G|-/12-14-------------14---12-14----------------|
D|----------------------------------------------|
A|----------------------------------------------|
E|----------------------------------------------|

E|-----------------------------------------------------|
B|-15b(17)-15b(17)-15b(17)-15b(17)-15b(17)-15b(17)r15v-|
G|-----------------------------------------------------|
D|-----------------------------------------------------|
A|-----------------------------------------------------|
E|-----------------------------------------------------|

E|-15-14-17-15-14--------------------|
B|----------------17-15-13-----------|
G|-------------------------16-14-----|
D|-------------------------------17v-|
A|-----------------------------------|
E|-----------------------------------|
Compositor não encontrado.
    • ½ Tono
    • A
    • Bb
    • B
    • C
    • Db
    • D
    • Eb
    • E
    • F
    • F#
    • G
    • Ab
  • Agregar a la lista

    0 comentarios

    Ver todos los comentarios

    ¿Lograste tocar?

    0 Tocaron 0 Aún no

    ¡Graba un video tocando Quien te dijo y envíanoslo!

    00:00 / 00:00
    Outros vídeos desta música
    Repetir Calidad Automático
    Outros vídeos desta música
    00:00 / 00:00
    Automático
    OK