Cifra Club

Quiero llevarte de luna de miel

Chabelos

Cifrado: Principal (guitarra y guitarra eléctrica)
tono: G
INTRO

bo bo bo bo bou
   G             Bm           Em           D
E|----3---3-3------2---2---2----0---0-0------2---2------|
B|-----3-----3------3-----3------0-----0------3---------|
G|------0-----0------4---4--------0-----0------2--------|
D|-----------------------------------------0------------|
A|---------------2--------------------------------------|
E|-3--------------------------0-------------------------|

vamos muchachos juju.!!
bo bo bo bo bou

   G            Bm           Em            D
E|----3---3-3------2---2---2----0---0-0------2---2------|
B|-----3-----3------3-----3------0-----0------3---------|
G|------0-----0------4---4--------0-----0------2--------|
D|-----------------------------------------0------------| (x2)
A|---------------2--------------------------------------|
E|-3--------------------------0-------------------------|

(este es la parte del  famosísimo CAZU)
e|--7-7-5-7-10-7-7--------12-10-7-7-10-7/5----------|

e|--7-7-5-7-10-7-5-3-3----12-10-7-7-10-7/5----------| (x2)

   G             Bm           Em           D
E|----3---3-3------2---2---2----0---0-0------2---2------|
B|-----3-----3------3-----3------0-----0------3---------|
G|------0-----0------4---4--------0-----0------2--------|
D|-----------------------------------------0------------|
A|---------------2--------------------------------------|
E|-3--------------------------0-------------------------|

   G               Bm
recuerdo cuando te dije
        Em              D
que con varias quería coger
        G              Bm
que el sexo era mas Hermoso
       Em              D
si lo asías con mas de 3

   C              G
E|----0---0-0------3---3-3-------|
B|-----1-----1------3-----3------|
G|------0-----0------0-----0-----|
D|-------------------------------|
A|-------------------------------|
E|-0--------------3--------------|

     C       G
qe estaba recontra loco

  C              D           G
E|----0------2-----3---3-3-------|
B|-----1------3-----3-----3------|
G|------0------2-----0-----0-----|
D|---------0---------------------|
A|-------------------------------|
E|-0--------------3--------------|
      C           D    G
por probar de todas un poco

       C                            G
E|----0---0-0------3---3-3-------|
B|-----1-----1------3-----3------|
G|------0-----0------0-----0-----|
D|-------------------------------|
A|-------------------------------|
E|-0--------------3--------------|
       C            G
que quería patas al hombro

      C              D           G
E|----0------2-----3---3-3-------|
B|-----1------3-----3-----3------|
G|------0------2-----0-----0-----|
D|---------0---------------------|
A|-------------------------------|
E|-0--------------3--------------|
       C      D     G
mas de una hacerlas acabar


bo bo bo bou
bo bo bo bou
   G            Bm           Em            D
E|----3---3-3------2---2---2----0---0-0------2---2------|
B|-----3-----3------3-----3------0-----0------3---------|
G|------0-----0------4---4--------0-----0------2--------|
D|-----------------------------------------0------------| (x2)
A|---------------2--------------------------------------|
E|-3--------------------------0-------------------------|

 (este es la parte del  famosísimo CAZU)
e|--7-7-5-7-10-7-7--------12-10-7-7-10-7/5----------|

e|--7-7-5-7-10-7-5-3-3----12-10-7-7-10-7/5----------| (x2)



(E SMO ARPEGIO)
pero ahora el tiempo a pasado
y ya no puedo seguir así
no soporto viéndote culiando
con mas de uno ala misma ves
no soporto verte cachando
penetrada una y otra ves
embutida por todos los wuecos
quiero llevarte de luna de miel


CORO:
C5
dime que no es cierto
     G5
que comes excremento
C5
dime que no es cierto
     G5
que tiras por el seko
C5              G5
dime tu caballo no te a perforado
C5              G5
dime de cuando no te la han clavado
C5                    G5
dime que ai una pinga sola en tu vida
C5                    G5
dime que esa pinga es mía y solo mía
C5                       G5
quiero que seas virgen y llevarte
              C5
al altar y después de un año
   D5      G5
ponernos a culiar


bo bo bo bou
bo bo bo bou

D PETIR INTRO…

(A  E SMA WEBADA HASTA ACABAR)   (:
no soporto verte cachando
penetrada una y otra ves
embutida por todos los wuecos
quiero llevarte de luna de miel
bo bo bo bou
   G            Bm            Em           D
E|----3---3-3------2---2---2----0---0-0------2---2------|
B|-----3-----3------3-----3------0-----0------3---------|
G|------0-----0------4---4--------0-----0------2--------|
D|-----------------------------------------0------------|
A|---------------2--------------------------------------|
E|-3--------------------------0-------------------------|

(este es la parte del  famosísimo CAZU parte final)
e|--7-7-5-7-10-7-7--------12-10-7-7-10-7/5----------|

e|--7-7-5-7-10-7-5-3-3----12-10-7-7-10-7/5----------|

e|--12-12-10-12-10---10-7-5-3---3-7-10-7-5-5-7-7----|

e|--5-7-10-12-14--14-15-14--10-7--15-10-7-7-7-10--7-5-3-3-3/1/3----|

   C              G
E|----0---0-0------3---3-3-------|
B|-----1-----1------3-----3------|
G|------0-----0------0-----0-----|
D|-------------------------------|
A|-------------------------------|
E|-0--------------3--------------|

  C        D      G
E|----0------2-----3---3-3-------|
B|-----1------3-----3-----3------|
G|------0------2-----0-----0-----|
D|---------0---------------------|
A|-------------------------------|
E|-0--------------3--------------|



CORO:

dime que no es cierto
que comes excremento
dime que no es cierto
que tiras por el seko
dime tu caballo no te a perforado
dime de cuando no te la han clavado
dime que ahí una pinga sola en tu vida
dime que esa pinga es mia y solo mia
quiero que seas virgen y llevarte
al altar y después de un año
ponernos a culiar

e|--5-7-7-5-7-11-10-7-11------|
Composición de Chabelos
1 vistas
    • ½ Tono
    • A
    • Bb
    • B
    • C
    • Db
    • D
    • Eb
    • E
    • F
    • F#
    • G
    • Ab
  • Agregar a la lista

    0 comentarios

    Ver todos los comentarios

    ¿Lograste tocar?

    0 Tocaron 0 Aún no

    ¡Graba un video tocando Quiero llevarte de luna de miel y envíanoslo!

    00:00 / 00:00
    Outros vídeos desta música
    Repetir Calidad Automático
    Outros vídeos desta música
    00:00 / 00:00
    Automático
    OK