Cifra Club

A Person Isnt Safe Anywhere These Days

The Chameleons

Cifrado: Principal (guitarra y guitarra eléctrica)
Selo Cifra Club: esta cifra foi revisada para atender aos critérios oficiais da nossa Equipe de Qualidade.
tono: E
Intro

Reg (overdriven guitar)

E|-------------------------------|
B|-------------------------------|
G|-------------------------------|
D|-------------------0---10---9~-|
A|-0-0-0-0-0-0-0-0-8---8----8----|
E|-------------------------------|

Dave (chorus/delay guitar)

E|-------------------------------|
B|-------------------1----0~-----|
G|---------------------0~--------|
D|-----------------3-------------|
A|-0-0-0-0-0-0-0-0---------------|
E|-------------------------------|

Verse

Reg

E|-------------------------------|
B|-------------------------------|
G|-------------------------------|
D|-------------------0---10---9~-|
A|-0-0-0-0-0-0-0-0-8---8----8----|
E|-------------------------------|

Dave

E|-----------------------------------------|
B|-----------------------------------------|
 A|-9-9-9-9-9-9-9-9-14-14-14-14-12-12-12-12-|
E|-----------------------------------------|
 B|-7-7-7-7-7-7-7-7-12-12-12-12-10-10-10-10-|
E|-----------------------------------------|

E|-----------------------------------------||-------------------------|
C#|-----------------------------------------||-------------------------|
 A|-9-9-9-9-9-9-9-9-17-17-17-17-16-16-16-16-||-19-19-19-19-17-17-17-17-|
E|-----------------------------------------||-------------------------|
 B|-7-7-7-7-7-7-7-7-15-15-15-15-14-14-14-14-||-17-17-17-17-15-15-15-15-|
E|-----------------------------------------||-------------------------|

Verse 2nd part [palm muted]

Reg

E|-------------------------------------|
B|-------------------------------------|
G|-------------------------------------|
D|-----------------10-10-10-10-9-9-9-9-|
A|-0-0-0-0-0-0-0-0--8--8--8--8-8-8-8-8-|
E|-------------------------------------|

Dave

E|-------------------------------------|
B|-------------------------------------|
G|-------------------------------------|
D|-----------------10-10-10-10-9-9-9-9-|
A|-0-0-0-0-0-0-0-0--8--8--8--8-8-8-8-8-|
E|-------------------------------------|

Chorus

Reg

E|----------------------------------|
B|----------------------------------|
G|------------------------------0-0-|
D|-2--2-2--2-2-2-2--2--2-2--2-2-2-2-|
A|-0--0-0--3-3-3-3--0--0-0--3-3-3-3-|
E|----------------------------------|

Dave

E|----------------------------------| |-----------------------------|
B|----------------------------------| |-1-1-1-1-3-3-0-0-0-0-0-0-0-0-|
G|----------------------------------| |-----------------------------|
D|-2--2-2--2-2-2-2--2--2-2--2-2-2-2-| |-2-2-2-2-2-2-2-2-2-2-2-2-2-2-|
A|-0--0-0--3-3-3-3--0--0-0--3-3-3-3-| |-----------------------------|
E|----------------------------------| |-----------------------------|


Post-chorus

Reg

E|---------------------------------|
B|---------------------------------|
G|---------------------------------|
 E|-5-5-5-5-5-5-5-5-7-7-7-7-5-5-5-5-|
 B|-3-3-3-3-3-3-3-3-5-5-5-5-3-3-3-3-|
E|---------------------------------|

Dave

E|---------------------------------|
C#|---------------------------------|
 E|-5-5-5-5-5-5-5-7-7-7-7-7-5-5-5-5-|
A|---------------------------------|
 B|-3-3-3-3-3-3-3-3-5-5-5-5-3-3-3-3-|
E|---------------------------------|

Break

Reg

E|-------------------------------|
B|-------------------------------|
G|-------------------------------|
D|---7---7---7---7---0---10---9~-|
A|-0---0---0---0---8---8----8----|
E|-------------------------------|

Dave



Final Part

Reg

E|----------------------10-10-10-10-10-10-10-10-|
C#|-10-10-10-10-10-10-10-13-13-13-13-10-10-10-10-|
 A|-10-10-10-10-10-10-10-10-10-10-10-10-10-10-10-|
 E|-10-10-10-10-10-10-10-10-10-10-10-10-10-10-10-|
E|----------------------------------------------|
B|----------------------------------------------|

E|-0-------------|
B|---1-----------|
G|-----2~-----0~-|
D|----------2----|
A|--------2------|
E|---------------|

Dave

E|----------------------10-10-10-10-10-10-10-10-|
C#|-10-10-10-10-10-10-10-13-13-13-13-10-10-10-10-|
 A|-10-10-10-10-10-10-10-10-10-10-10-10-10-10-10-|
 E|-10-10-10-10-10-10-10-10-10-10-10-10-10-10-10-|
E|----------------------------------------------|
B|----------------------------------------------|

E|-0-------------|
B|---1-----------|
G|-----2~-----0~-|
D|----------2----|
A|--------2------|
E|---------------|

Last note

E|-----|
C#|-*0*-|
 A|-*0*-|
 E|-----|
 B|-----|
E|-----|
Otros videos de esta canción
    2 exhibiciones
      • ½ Tono
      • A
      • Bb
      • B
      • C
      • Db
      • D
      • Eb
      • E
      • F
      • F#
      • G
      • Ab
    • Agregar a la lista

    Afinação da cifra

    Afinador online

      Ops (: Contenido disponible solo en portugués.
      OK