Cifra Club

As High As You Can Go

The Chameleons

Cifrado: Principal (guitarra y guitarra eléctrica)
Selo Cifra Club: esta cifra foi revisada para atender aos critérios oficiais da nossa Equipe de Qualidade.
tono: C
E|-----------------------------------------|
B|----1----1----1----1----1----1----1----1-|
G|---0----0----0----0----0----0----0----0--|
D|--2----2----2----2----2----2----2----2---|
A|-0----0----0----0----0----0----0----0----|
E|-----------------------------------------|

[Verse 1-a]

Reg - overdriven guitar

E|-----------------------------------------|
B|-------1-------------------1-------------|
G|---2-----2-------0-----2-----2-------0---|
D|-2---2-------2-----2-2---2-------2-----2-|
A|-----------2---2---------------2---2-----|
E|-----------------------------------------|

Dave - modulated guitar (chorus and delay)

E|------------------------------------------|
B|-------1---3----------------1---3---0-----|
G|---2-----2-----4-------2------2---------0-|
D|-2---2-------------5-2----2---------------|
A|------------------------------------------|
E|------------------------------------------|

[Verse 1-b]

Reg - overdriven guitar

E|-----------------------------------------|
B|-------1-------------------1-------------|
G|---2-----2-------0-----2-----2-------0---|
D|-2---2-------2-----2-2---2-------2-----2-|
A|-----------2---2---------------2---2-----|
E|-----------------------------------------|

Dave - modulated guitar (chorus and delay)

E|-------------------------------------------------------------------------|
B|-------------------------------------------------------------------------|
G|-12-12-12-12-12-12-12-12-7-7-7-7-7-7-7-7-5-5-5-5-5-5-5-5-7-7-7-7-7-7-7-7-|
D|-------------------------------------------------------------------------|
A|-10-10-10-10-10-10-10-10-5-5-5-5-5-5-5-5-3-3-3-3-3-3-3-3-5-5-5-5-5-5-5-5-|
E|-------------------------------------------------------------------------|

[Chorus]

Reg - overdriven guitar

E|-----------------------------------------------------------------------------------------|
B|-----------------------------------------------------------------------------------------|
G|-9-9-9-9-9-9-9-9-10-10-10-10-12-12-12-12-14-14-14-14-16-16-16-16-17-17-17-17-16-16-16-16-|
D|-----------------------------------------------------------------------------------------|
A|-7-7-7-7-7-7-7-7--8--8--8--8-10-10-10-10-12-12-12-12-14-14-14-14-15-15-15-15-14-14-14-14-|
E|-----------------------------------------------------------------------------------------|

E|-------------------------------------------------------------------------------------------------|
B|-------------------------------------------------------------------------------------------------|
G|-14-14-14-14-14-14-14-14-12-12-12-12-14-14-14-14-16-16-16-16-16-16-16-16-17-17-17-16-16-16-16-16-|
D|-------------------------------------------------------------------------------------------------|
A|-12-12-12-12-12-12-12-12-10-10-10-10-12-12-12-12-14-14-14-14-14-14-14-14-15-15-15-14-14-14-14-14-|
E|-------------------------------------------------------------------------------------------------|

Dave - modulated guitar (chorus and delay)

E|-------------------------------------------------------------------------|
B|-------------------------------------------------------------------------|
G|-7-7-7-7-7-7-7-7-9-9-9-9-12-12-12-12-7-7-7-7-7-7-7-7-9-9-9-9-12-12-12-12-|
D|-------------------------------------------------------------------------|
A|-5-5-5-5-5-5-5-5-7-7-7-7-10-10-10-10-5-5-5-5-5-5-5-5-7-7-7-7-10-10-10-10-|
E|-------------------------------------------------------------------------|

E|---------------------------------------------------------------------|
B|---------------------------------------------------------------------|
G|-7-7-7-7-7-7-7-7-9-9-9-9-12-12-12-12-7-7-7-7-7-7-7-7-9-9-9-9-9-9-9-9-|
D|---------------------------------------------------------------------|
A|-5-5-5-5-5-5-5-5-7-7-7-7-10-10-10-10-5-5-5-5-5-5-5-5-7-7-7-7-7-7-7-7-|
E|---------------------------------------------------------------------|

[Break]

Reg - overdriven guitar

E|-----------------------------------------------------------------|
B|-----5-----5---------5-----5---------0-----0---------1-----0-----|
G|---5-----5-----5---5-----5-----5---0-----0-----0---0-----0-----0-|
D|-7-----7-----7---5-----5-----5---2-----2-----2---2-----2-----2---|
A|-----------------------------------------------------------------|
E|-----------------------------------------------------------------|

Dave - modulated guitar (chorus and delay)


E|-----------------------------------------------------------------|
B|-----5-----5---------5-----5---------0-----0---------1-----0-----|
G|---5-----5-----5---5-----5-----5---0-----0-----0---0-----0-----0-|
D|-7-----7-----7---5-----5-----5---2-----2-----2---2-----2-----2---|
A|-----------------------------------------------------------------|
E|-----------------------------------------------------------------|

[Finale]

Reg - overdriven guitar

E|-----------------------------------------|
B|-------1-------------------1-------------|
G|---2-----2-------0-----2-----2-------0---|
D|-2---2-------2-----2-2---2-------2-----2-|
A|-----------2---2---------------2---2-----|
E|-----------------------------------------|

Dave - modulated guitar (chorus and delay)

E|------------------------------------------|
B|-------1---3---5------------1---3---5-----|
G|---2-----2---------4---2------2---------4-|
D|-2---2---------------2----2---------------|
A|------------------------------------------|
E|------------------------------------------|
Otros videos de esta canción
    9 exhibiciones
      • ½ Tono
      • A
      • Bb
      • B
      • C
      • Db
      • D
      • Eb
      • E
      • F
      • F#
      • G
      • Ab
    • Agregar a la lista

    Afinação da cifra

    Afinador online

      Ops (: Contenido disponible solo en portugués.
      OK