Cifra Club

Dont Fall

The Chameleons

Cifrado: Principal (guitarra y guitarra eléctrica)
Selo Cifra Club: esta cifra foi revisada para atender aos critérios oficiais da nossa Equipe de Qualidade.
tono: E
Tabbed by: Klaus Hurskainen
Email: *

Tuning: F#BEAC#F# (a whole step higher than normal)

Reg's riff (intro, verse & bridge)
e|---------------------------------|
B|---------------------------------|
G|---------------------------------|
D|-----------------------------3-2-|
A|-------------------------3-2-----|
E|-0-0-0-0-3-3-3-3-2-2-2-2---------|

Dave's part (intro & bridge)
e|---------------------------------|
B|---------------------------------|
G|---------------------------------|
D|---------------------------------|
A|-2222222222222222222222222222222-|
E|-0000000000000000000000000000000-|

Dave's part (verse) (Reg plays this sometimes as well)
e|-----0---0-0-0---0---0---0-0-0-0-|
B|-----0---0-0-0---0---0---0-0-0-0-|
G|-----1---4-4-4---3---3---2-2-2-2-|
D|-----2---5-5-5---4---4---3-3-3-3-|
A|---------------------------------|
E|---------------------------------|

Reg's part (chorus)
e|-----------------------------------------|
B|-----------------------------------------|
G|-5-5-5-5-5-5-5-5-12-12-12-12-12-12-12-12-|
D|-5-5-5-5-5-5-5-5-12-12-12-12-12-12-12-12-|
A|-3-3-3-3-3-3-3-3-10-10-10-10-10-10-10-10-|
E|-----------------------------------------|

---------------------------------------------|
---------------------------------------------|
-------------------------------------2-4-4-4-|
-12-12-12-12-12-12-12-12-12-12-12-12-2-4-4-4-|
-12-12-12-12-12-12-12-12-12-12-12-12-2-4-4-4-|
-10-10-10-10-10-10-10-10-10-10-10-10---------|


Dave's part (chorus)
e|-----------------------------------------------------------------|
B|-----------------------------------------------------------------|
G|-5-5-5-5-5-5-5-5-----------------7-7-7-7-7-7-7-7-7-7-7-7-4-4-4-4-|
D|-5-5-5-5-5-5-5-5-5-5-5-5-5-5-5-5-7-7-7-7-7-7-7-7-7-7-7-7-4-4-4-4-|
A|-3-3-3-3-3-3-3-3-5-5-5-5-5-5-5-5-5-5-5-5-5-5-5-5-5-5-5-5-2-2-2-2-|
E|-----------------3-3-3-3-3-3-3-3---------------------------------|

Reg's part (middle)
e|-----------------------------------------|
B|-----------------------------------------|
G|-----------------------------------------|
D|-5-5-5-5-5-5-5-5-12-12-12-12-12-12-12-12-|
A|-3-3-3-3-3-3-3-3-10-10-10-10-10-10-10-10-|
E|-----------------------------------------|

-------------------------------------------------|
-------------------------------------------------|
-------------------------------------------------|
-12-12-12-12-12-12-12-12-------------------------|
-12-12-12-12-12-12-12-12-12-12-12-12-12-12-12-12-|
-------------------------10-10-10-10-10-10-10-10-|

Dave's part (middle)
e|---------------------------------------------------------------------------------|
B|---------------------------------------------------------------------------------|
G|-5-5-5-5-5-5-5-5-12-12-12-12-12-12-12-12-7-7-7-7-12-12-12-12-11-11-11-11-9-9-9-9-|
D|---------------------------------------------------------------------------------|
A|-3-3-3-3-3-3-3-3-10-10-10-10-10-10-10-10-5-5-5-5-10-10-10-10-9--9--9--9--7-7-7-7-|
E|---------------------------------------------------------------------------------|

Dave's part 2 (middle)
e|--------0--------------0---------|
B|----3-------3------3-------3-----|
G|------2--------------2---------2-|
D|-2---------------2---------------|
A|---------------------------------|
E|---------------------------------|

Both guitars (ending)
e|-------------------------------------------------------------------------|
B|-------------------------------------------------------------------------|
G|-7-7-7-7-7-7-7-9-9-9-9-9-9-9-9-7-7-7-7-12-12-12-12-11-11-11-11-9-9-9-9-7-|
D|-------------------------------------------------------------------------|
A|-5-5-5-5-5-5-5-7-7-7-7-7-7-7-7-5-5-5-5-10-10-10-10-9--9--9--9--7-7-7-7-5-|
E|-------------------------------------------------------------------------|

If you have any corrections, please leave a comment.
===============================================================================
Otros videos de esta canción
    129 exhibiciones
      • ½ Tono
      • A
      • Bb
      • B
      • C
      • Db
      • D
      • Eb
      • E
      • F
      • F#
      • G
      • Ab
    • Agregar a la lista

    Afinação da cifra

    Afinador online

      Ops (: Contenido disponible solo en portugués.
      OK