Cifra Club

Nostalgia

The Chameleons

Cifrado: Principal (guitarra y guitarra eléctrica)
Selo Cifra Club: esta cifra foi revisada para atender aos critérios oficiais da nossa Equipe de Qualidade.
tono: D
Reg
E|------------------------------(0)-----------------------------(0)----------|
B|-------------------------------0-------------------------------0-----------|
G|---------------------------------------------------------------------------|
D|---0-2-0-2-0---0-2-0-2-0---0-2-----0-2-0-2-0---0-2-0-2-0---0-2-------------|
A|-0-----------0-----------0-------0-----------0-----------0-----------------|
E|---------------------------------------------------------------------------|
E|-PM-------------------------| |PM------------------------|

[Verse 1]

Reg
E|------------------------------(0)-----------------------------(0)----------|
B|-------------------------------0-------------------------------0-----------|
G|---------------------------------------------------------------------------|
D|---0-2-0-2-0---0-2-0-2-0---0-2-----0-2-0-2-0---0-2-0-2-0---0-2-------------|
A|-0-----------0-----------0-------0-----------0-----------0-----------------|
E|---------------------------------------------------------------------------|
E|-PM-------------------------| |PM------------------------|

Dave
E|-----------------------12-12---------------------------12-12---------------|
B|-3---------------------12-12-----3---------------------12-12---------------|
G|-2---------------------12-12-----2---------------------12-12---------------|
D|-0-------------------------------0-----------------------------------------|
A|---------------------------------------------------------------------------|
E|---------------------------------------------------------------------------|

[Pre-Chorus]

Reg
E|---------------------------------------------------------------------------|
B|---------------------------------------------------------------------------|
G|---------------------------------------------------------------------------|
D|-0-2-4~-2-4~-2-4~-2~-0~-----2-2-2-0~-----0-2-4~-2-4~-2-4~-2~-0~------------|
A|---------------------------------------------------------------------------|
E|---------------------------------------------------------------------------|

Dave
E|---------------------------------------------------------------------------|
B|-3-3-3--3-2--2-2--2--3------5-5-5-3------3-3-3--3-2--2-2--2--3-------------|
G|-4-4-4--4-2--2-2--2--2------4-4-4-2------4-4-4--4-2--2-2--2--2-------------|
D|-4-4-4--4-2--2-2--2--0------------0------4-4-4--4-2--2-2--2--0-------------|
A|-2-2-2--2-0--0-0--0----------------------2-2-2--2-0--0-0--0----------------|
E|---------------------------------------------------------------------------|

[Chorus]

Reg
E|---------------------------------------------------------------------------|
B|---------------------------------------------------------------------------|
G|---------------------------------------------------------------------------|
D|-2~----0~------------------------2~----0~----------------------------------|
A|-------------4~--0~--------------------------4~--0~------------------------|
E|---------------------------------------------------------------------------|

Dave
E|---------------------------------------------------------------------------|
B|-3-3-3-3-3-3-3-3-3-3-3-3-3-3-3-3-3-3-3-3-3-3-3-3-3-3-3-3-3-3-3-3-----------|
G|-2-2-2-2-2-2-2-2-2-2-2-2-2-2-2-2-4-4-4-4-4-4-4-4-4-4-4-4-4-4-4-4-----------|
D|-0-0-0-0-0-0-0-0-0-0-0-0-0-0-0-0-4-4-4-4-4-4-4-4-4-4-4-4-4-4-4-4-----------|
A|-0-0-0-0-0-0-0-0-0-0-0-0-0-0-0-0-2-2-2-2-2-2-2-2-2-2-2-2-2-2-2-2-----------|
E|---------------------------------------------------------------------------|

[Post-Chorus]

Reg
E|---------------------------------------------------------------------------|
B|---------------------------------------------------------------------------|
G|-----------------------4-4-4-2-2-----------------------4-4-4-2-2-----------|
D|-------2-2-2-2-2-4-4-4-----------------2-2-2-2-2-4-4-4---------------------|
A|-0-0-0---------------------------0-0-0-------------------------------------|
E|---------------------------------------------------------------------------|

Dave
E|---------------------------------------------------------------------------|
B|---------------------------------------------------------------------------|
G|-----------------------4-4-4-2-2-----------------------4-4-4-2-2-----------|
D|-------2-2-2-2-2-4-4-4-----------------2-2-2-2-2-4-4-4---------------------|
A|-0-0-0---------------------------0-0-0-------------------------------------|
E|---------------------------------------------------------------------------|

[Bridge]

Reg
E|---------------------------------------------------------------------------|
B|-3-3-3-3-3-3-3-3-3-3-3-3-3-3-3-3-3-3-3-3-3-3-3-3-3-3-3-3-3-3-3-3-----------|
G|-2-2-2-2-2-2-2-2-2-2-2-2-2-2-2-2-4-4-4-4-4-4-4-4-4-4-4-4-4-4-4-4-----------|
D|-0-0-0-0-0-0-0-0-0-0-0-0-0-0-0-0-4-4-4-4-4-4-4-4-4-4-4-4-4-4-4-4-----------|
A|-0-0-0-0-0-0-0-0-0-0-0-0-0-0-0-0-2-2-2-2-2-2-2-2-2-2-2-2-2-2-2-2-----------|
E|---------------------------------------------------------------------------|
E|-PM-------------------------------------------------------------|

Dave
E|-0-------------------------------0-----------------------------------------|
B|-------3-----2-------------------------3-----2-----------------------------|
G|-----------------2~------------------------------2~------------------------|
D|---------------------------------------------------------------------------|
A|---------------------------------------------------------------------------|
E|---------------------------------------------------------------------------|

[Ending]

Reg
E|---------------------------------------------------------------------------|
B|---------------------------------------------------------------------------|
G|---------------------------------------------------------------------------|
D|-2~----0~------------------------2~----0~----------------------------------|
A|-------------4~--0~--------------------------4~--0~------------------------|
E|---------------------------------------------------------------------------|

Dave
E|---------------------------------------------------------------------------|
B|-3-3-3-3-3-3-3-3-3-3-3-3-3-3-3-3-3-3-3-3-3-3-3-3-3-3-3-3-3-3-3-3-----------|
G|-2-2-2-2-2-2-2-2-2-2-2-2-2-2-2-2-4-4-4-4-4-4-4-4-4-4-4-4-4-4-4-4-----------|
D|-0-0-0-0-0-0-0-0-0-0-0-0-0-0-0-0-4-4-4-4-4-4-4-4-4-4-4-4-4-4-4-4-----------|
A|-0-0-0-0-0-0-0-0-0-0-0-0-0-0-0-0-2-2-2-2-2-2-2-2-2-2-2-2-2-2-2-2-----------|
E|---------------------------------------------------------------------------|

3rd guitar
E|-0-------------------------------0-----------------------------------------|
B|-------3-----2-------------------------3-----2-----------------------------|
G|-----------------2~------------------------------2~------------------------|
D|---------------------------------------------------------------------------|
A|---------------------------------------------------------------------------|
E|---------------------------------------------------------------------------|


[Outro]

Reg
E|---------------------------------------------------------------------------|
B|-3~~-----------------------------------------------------------------------|
G|-2~~-----------------------------4~~-----------------------------2~~-------|
D|-0~~-----------------------------4~~-----------------------------2~~-------|
A|---------------------------------2~~-----------------------------0~~-------|
E|---------------------------------------------------------------------------|

Dave
E|-0-----------------------------------------------0-------------------------|
B|-------3-----2---------2-----3---0-----2-----3---------3-----2-------------|
G|-----------------2-----------------------------------------------2~--------|
D|---------------------------------------------------------------------------|
A|---------------------------------------------------------------------------|
E|---------------------------------------------------------------------------|


************************************

| (n) Ghost note
| ~   Vibrato
| PM  Palm mute
Otros videos de esta canción
    8 exhibiciones
      • ½ Tono
      • A
      • Bb
      • B
      • C
      • Db
      • D
      • Eb
      • E
      • F
      • F#
      • G
      • Ab
    • Agregar a la lista

    Afinação da cifra

    Afinador online

      Ops (: Contenido disponible solo en portugués.
      OK