Cifra Club

Pleasure And Pain

The Chameleons

Cifrado: Principal (guitarra y guitarra eléctrica)
Selo Cifra Club: esta cifra foi revisada para atender aos critérios oficiais da nossa Equipe de Qualidade.
tono: A
Album : Script of the bridge

Another beautiful song from one of the best top 10 rock album in
the last 20 years.
  
any comment welcome at:*


Tuning = F#ADGBE
change E to F# and Reg's part become very easy..



1-Reg's part
slightly palm  mute
At 30"
E-----------------------------------------------|
B-----------------------------------------------|
G-----------------------------------------------| 
D-------4-----4----------4-----4----------------|
A-----4---4-5---5-4----4---4-5---5-4------------|
F#--0---------------0-----------------0---------|
Repeat along the song

1'16"   "I can take you ..."
E---------------------------------------|
B---------------------------------------|
G--2-2-2-2-2-2-2-2-------------------2--| 
D--0-0-0-0-0-0-0-0-2-2-2-2-2-2-2-2---2--|X4
A------------------0-0-0-0-0-0-0-0------|
F#--------------------------------------|


1'30"  until 2'20"
E-------------------------------------------------|
B-------------------------------------------------|
G-------------------------------------------------| 
D-------4-----4-----------4-----4-----------------|
A-----4---4-5---5-4-----4---4-5---5-4-------------|
F#--0---------------0-------------------0---------|

from 2'20 to 2'35, Reg does not play (I suppose)
At 2'35
E---------------------------------------|
B---------------------------------------|
G--2-2-2-2-2-2-2-2-------------------2--| 
D--0-0-0-0-0-0-0-0-2-2-2-2-2-2-2-2---2--|X4
A------------------0-0-0-0-0-0-0-0------|
F#--------------------------------------|

After he continues
E-------------------------------------------------|
B-------------------------------------------------|
G-------------------------------------------------| 
D-------4-----4-----------4-----4-----------------|
A-----4---4-5---5-4-----4---4-5---5-4-------------|
F#--0---------------0-------------------0---------|

At 3'08

"pleasure and pain..."
E-------------------------------------------------------------|
B-------------------------------------------------------------|
G-------------------------------------------------------------| 
D--12-12-12-12-12-12-12-12-14-14-14-14-14-14-12-11-11-11-11-11|X4
A-------------------------------------------------------------|
F#------------------------------------------------------------|

3'40 until 3'55

E---------------------------------------|
B---------------------------------------|
G--2-2-2-2-2-2-2-2-------------------2--| 
D--0-0-0-0-0-0-0-0-2-2-2-2-2-2-2-2---2--|X4
A------------------0-0-0-0-0-0-0-0------|
F#--------------------------------------|


2-Dave's part
Dave starts after Reg
At: 36"
E-------4-5--7--5-4--------4-4-4-4-----4-4-4-4-------------|
B--7--7-------------7-5----5-5-5-5--7--5-5-5-5-7-----------|
G-----------------------6-----------6----------6----6--6---| 
D--------------------------------------------------4--4----|
A----------------------------------------------------------|
F#---------------------------------------------------------|

repeat along the song

at 4' until the end

E------------------------------|
B----2---2----3-2-3-5-------5--|
G------4--------------4-2-4----| 
D--4---------------------------|X4
A------------------------------|
F#-----------------------------|





enjoy
Otros videos de esta canción
    38 exhibiciones
      • ½ Tono
      • A
      • Bb
      • B
      • C
      • Db
      • D
      • Eb
      • E
      • F
      • F#
      • G
      • Ab
    • Agregar a la lista

    Afinação da cifra

    Afinador online

      Ops (: Contenido disponible solo en portugués.
      OK