Cifra Club

Singing Rule Britannia While The Walls Close In

The Chameleons

Cifrado: Principal (guitarra y guitarra eléctrica)
Selo Cifra Club: esta cifra foi revisada para atender aos critérios oficiais da nossa Equipe de Qualidade.
tono: Bm
E|----------------------------------|
B|----------------------------------|
G|----------------------------------|
D|---4---4---4---4---4---4---4---4--|
A|-----4-------4-------4-------4----|
E|-2-------0-------2-------0--------|

Dave (Chorus and delay)

E|-7------7------9--------9----9----9----9-----|
B|---9------9------11------11---11---11---11---|
G|-----9~-----9~------11~----11---11---11---11-|
D|---------------------------------------------|
A|---------------------------------------------|
E|---------------------------------------------|


[Verse]

Reg

E|----------------------------------|
B|----------------------------------|
G|----------------------------------|
D|---4---4---4---4---4---4---4---4--|
A|-----4-------4-------4-------4----|
E|-2-------0-------2-------0--------|

Dave

E|-9------9----------7--7~--|
B|---11------11------9--9~--|
G|------11~-----11~--9--9~--|
D|--------------------------|
A|--------------------------|
E|--------------------------|


[Chorus]

Reg

E|-----------------------------------------------------------------|
B|-----------------------------------------------------------------|
G|-----------------------------------------------------------------|
D|-----------------------------------------------------------------|
A|-----------------------------------------------------------------|
F#|-7-7-7-7-7-7-7-7-7-7-7-7-9-9-9-9-5-5-5-5-5-5-5-5-4-4-4-4-5-5-5-5-|

Dave

E|--------------------------------------------------------------------------|
B|--------------------------------------------------------------------------|
G|-7-7-7-7-7-7-7-7-6-6-6-6-7-7-7-7-9-9-9-9-9-9-9-9-11-11-11-11-11-11-11-11--|
D|--------------------------------------------------------------------------|
A|-5-5-5-5-5-5-5-5-4-4-4-4-5-5-5-5-7-7-7-7-7-7-7-7-9--9--9--9--9--9--9--9---|
E|--------------------------------------------------------------------------|


[Break]

Reg

E|-------------------------------------------------------------------------------|
B|-------------------------------------------------------------------------------|
G|-------------------------------------------------------------------------------|
D|-------------------------------------------------------------------------------|
A|-------------------------------------------------------------------------------|
F#|-7-7-7-7-7-7-7-7-9-9-9-9-5-10-10-10-10-9-9-9-9-9-9-9-9-10-10-10-10-12-12-12-12-|

Dave

E|-------------------------------------------------|
B|-12---------------------12-----------------------|
G|----13----------14-14~-----13----------14-14-13~-|
D|-------14-12-12---------------14-12-12-----------|
A|-------------------------------------------------|
E|-------------------------------------------------|


[Final Part]

Reg

E|----------------------------------| |---|
B|----------------------------------| |---|
G|----------------------------------| |---|
D|---4---4---4---4---4---4---4---4--| |-4-|
A|-----4-------4-------4-------4----| |-4-|
E|-2-------0-------2-------0--------| |-2-|

Dave

E|---------------------------------------------------------------------------------|
B|---------------------------------------------------------------------------------|
 A|-11-11-11-11-11-11-11-11-11-11-11-13-13-13-13-13-6-6-6-6-6-6-6-6-6-6-6-6-6-6-6-6-|
E|---------------------------------------------------------------------------------|
B|--9--9--9--9--9--9--9--9--9--9--9-11-11-11-11-11-4-4-4-4-4-4-4-4-4-4-4-4-4-4-4-4-|
G|---------------------------------------------------------------------------------|
Otros videos de esta canción
    2 exhibiciones
      • ½ Tono
      • Am
      • Bbm
      • Bm
      • Cm
      • C#m
      • Dm
      • Ebm
      • Em
      • Fm
      • F#m
      • Gm
      • G#m
    • Agregar a la lista

    Afinação da cifra

    Afinador online

      Ops (: Contenido disponible solo en portugués.
      OK