Cifra Club

Up The Down Escalator

The Chameleons

Cifrado: Principal (guitarra y guitarra eléctrica)
Selo Cifra Club: esta cifra foi revisada para atender aos critérios oficiais da nossa Equipe de Qualidade.
tono: B
E|---------------------------------|
B|---------------------------------|
 A|-4-4-4-4-4-4-4-4-5-5-5-5-0-0-0-0-|
 E|-5-5-5-5-5-5-5-5-5-5-5-5-0-0-0-0-|
E|---------------------------------|
B|---------------------------------|

Dave (chorus/delay guitar)

E|---------------------------------|
B|---------------------------------|
 A|-7-7-7-7-7-7-7-7-9-9-9-9-5-5-5-5-|
E|---------------------------------|
 B|-5-5-5-5-5-5-5-5-7-7-7-7-3-3-3-3-|
E|---------------------------------|

E|-------------------------------------|
B|-------------------------------------|
 A|-7-7-7-7-7-7-7-7-9-9-9-9-12-12-12-12-|
E|-------------------------------------|
 B|-5-5-5-5-5-5-5-5-7-7-7-7-10-10-10-10-|
E|-------------------------------------|

Verse

Reg

F#|-7-7-7-7-7-7-7-7-0-0-0-0-0-0-0-0-|
C#|-7-7-7-7-7-7-7-7-0-0-0-0-0-0-0-0-|
 A|-8-8-8-8-8-8-8-8-8-8-8-8-8-8-8-8-|
 E|-9-9-9-9-9-9-9-9-9-9-9-9-9-9-9-9-|
 B|-9-9-9-9-9-9-9-9-9-9-9-9-9-9-9-9-|
F#|-7-7-7-7-7-7-7-7-0-0-0-0-0-0-0-0-|

Dave

E|------------------------------------|
B|------------------------------------|
G|-11-11-11-8-8-8-4-4-----------------|
D|--------------------6-6-6-6-6-6-6-6-|
A|--9--9--9-6-6-6-2-2-----------------|
E|--------------------4-4-4-4-4-4-4-4-|

E|----------------------------------------------|
B|----------------------------------------------|
 A|-11-11-11-8-8-8-11-11-13-13-15-15-13-13-11-11-|
E|----------------------------------------------|
B|--9--9--9-6-6-6--9--9-11-11-13-13-11-11--9--9-|
G|----------------------------------------------|

Chorus

Reg

E|--------------------------|
B|--------------------------|
G|--------------------------|
D|-4-4--4~--4-4-4-4-4-4-4-4-|
A|-4-4--4~--4-4-4-4-4-4-4-4-|
E|-2-2--2~--0-0-0-0-0-0-0-0-|

Dave

E|-------------------------------------------------|
B|-------------------------------------------------|
 A|-11-11-11-11-11-11-11-11-13-13-13-13-13-13-13-13-|
E|-------------------------------------------------|
B|--9--9--9--9--9--9--9--9-11-11-11-11-11-11-11-11-|
G|-------------------------------------------------|

2nd Verse

Reg

F#|-7-7-7-7-7-7-7-7-0-0-0-0-0-0-0-0-|
C#|-7-7-7-7-7-7-7-7-0-0-0-0-0-0-0-0-|
 A|-8-8-8-8-8-8-8-8-8-8-8-8-8-8-8-8-|
 E|-9-9-9-9-9-9-9-9-9-9-9-9-9-9-9-9-|
 B|-9-9-9-9-9-9-9-9-9-9-9-9-9-9-9-9-|
F#|-7-7-7-7-7-7-7-7-0-0-0-0-0-0-0-0-|

Dave

F#|-7-7-7-7-7-7-7-7-0-0-0-0-0-0-0-0-|
C#|-7-7-7-7-7-7-7-7-0-0-0-0-0-0-0-0-|
 A|-8-8-8-8-8-8-8-8-8-8-8-8-8-8-8-8-|
 E|-9-9-9-9-9-9-9-9-9-9-9-9-9-9-9-9-|
 B|-9-9-9-9-9-9-9-9-9-9-9-9-9-9-9-9-|
F#|-7-7-7-7-7-7-7-7-0-0-0-0-0-0-0-0-|

Break

Reg

E|---------------------------------|
B|---------------------------------|
 A|-4-4-4-4-4-4-4-4-5-5-5-5-0-0-0-0-|
 E|-5-5-5-5-5-5-5-5-5-5-5-5-0-0-0-0-|
E|---------------------------------|
B|---------------------------------|

Dave

E|---------------------------------|
B|---------------------------------|
 A|-7-7-7-7-7-7-7-7-9-9-9-9-5-5-5-5-|
E|---------------------------------|
 B|-5-5-5-5-5-5-5-5-7-7-7-7-3-3-3-3-|
E|---------------------------------|

E|-------------------------------------|
B|-------------------------------------|
 A|-7-7-7-7-7-7-7-7-9-9-9-9-12-12-12-12-|
E|-------------------------------------|
 B|-5-5-5-5-5-5-5-5-7-7-7-7-10-10-10-10-|
E|-------------------------------------|

E|-------------------------------------------------|
B|-------------------------------------------------|
 A|-11-11-11-11-11-11-11-11-12-12-12-12-14-14-14-14-|
E|-------------------------------------------------|
B|--9--9--9--9--9--9--9--9-10-10-10-10-12-12-12-12-|
G|-------------------------------------------------|

E|-------------------------------------------------|
B|-------------------------------------------------|
 A|-16-16-16-16-16-16-16-16-14-14-14-14-12-12-12-12-|
E|-------------------------------------------------|
 B|-14-14-14-14-14-14-14-14-12-12-12-12-10-10-10-10-|
E|-------------------------------------------------|
Otros videos de esta canción
    5 exhibiciones
      • ½ Tono
      • A
      • Bb
      • B
      • C
      • Db
      • D
      • Eb
      • E
      • F
      • F#
      • G
      • Ab
    • Agregar a la lista

    Afinação da cifra

    Afinador online

      Ops (: Contenido disponible solo en portugués.
      OK