Cifra Club

Animales Disfrazados

Chancho En Piedra

Cifrado: Principal (guitarra y guitarra eléctrica)
Selo Cifra Club: esta cifra foi revisada para atender aos critérios oficiais da nossa Equipe de Qualidade.
tono: F#m
INTRO:

 F#m7     Fam#7(*)
E|--5--| |--9---|
B|--5--| |--10--|
G|--6--| |--9---|
D|--4--| |--11--|
A|-----| |------|
E|-----| |------|

(*): esta variación se puede usar en la estrofa, pero no la recomiendo

*********************************************

VERSO

 F#m7       Bm        E         C# 
E|--5--| |--7--|   |--7--|   |--9---|
B|--5--| |--7--|   |--9--|   |--9---|
G|--6--| |--7--|   |--9--|   |--10--|
D|--4--| |--8--|   |--9--|   |--11--|
A|-----| |-----|   |-----|   |------|
E|-----| |-----|   |-----|   |------|

F#m7 
Para ti no soy importante
Bm 
debo verme más elegante
E          C#                F#m7 
yo no conosco a nadie influyente

F#m7 
Y no vengan aquí a tratarme así
Bm 
no entiendo como puedes juzgarme tu a mi
E               C#                    F#m7 
que sabes lo que soy y que es lo que pienso

*********************************************

PD  CORO:

 C#m 
E|--4--| |--2--|
B|--5--| |--3--|
G|--4--| |--2--|
D|--6--| |--4--|
A|--4--| |--2--|
E|-----| |-----|

(A)
E|--7/--7-5--------|
B|----------7-5-7--|
G|-----------------|
D|-----------------|
A|-----------------|
E|-----------------| (x2)

C#m7              Bm7                      (A)
Si al final da igual que seamos diferentes
C#m7             Bm7 
y da igual al final

*********************************************

CORO:

FORMA 1:
     E -F#       E -F# 
animales disfrazados
      B     A#   A 
de la humanidaaa-aad
     E -F#       E -F# 
no te creas dios romano
     B       C#      A 
como yo solo eres un humano

  E         F#        B         A#        A         C# 
E|-----| |-----|   |-----|   |-----|   |-----|   |-----|
B|-----| |-----|   |-----|   |-----|   |-----|   |-----|
G|-----| |-----|   |--4--|   |--3--|   |--2--|   |--6--|
D|--2--| |--4--|   |--4--|   |--3--|   |--2--|   |--6--|
A|--2--| |--4--|   |--2--|   |--1--|   |--0--|   |--4--|
E|--0--| |--2--|   |-----|   |-----|   |-----|   |-----|

FORMA 2:

Animales disfrazados...
E|--9-------------------------|
B|-----12-12-10-----10-12-10--|
G|---------------11-----------|
D|----------------------------|
A|----------------------------|
E|----------------------------|

de la humanidad...
E|-----------9----------|
B|-----10-12----11--10--|
G|--11------------------|
D|----------------------|
A|----------------------|
E|----------------------|

no te creas dios romano...
E|--9-------------------------|
B|-----12-12-10-----10-12-10--|
G|---------------11-----------|
D|----------------------------|
A|----------------------------|
E|----------------------------|

como yo solo eres un humano.
E|------------------9---------9--------|
B|-----10-12-10-------12-10-----12-10--|
G|--11----------11---------------------|
D|-------------------------------------|
A|-------------------------------------|
E|-------------------------------------|

(recomiendo tocar la Forma 1 si se está tocando con una guitarra)

*********************************************

PARTE B:

FORMA 1:
F# 
y quien sabe
          B                F# 
como estaremos en un tiempo más
(A)       F# 
si no cambias
       B             (C# )-D          E 
tu arrogante forma de juzgar a los demás
            A# 
por su disfraz
D            E            A# 
cuando aceptaras la realidad
F# (*)
de que no somos más

(A)
E|--------------|
B|--------------|
G|-------2------|
D|--2------(4)--|
A|----4---------|
E|--------------|

  F#    F#  B         C#        D         E        Fa#(*)
E|-----| |-----|   |-----|   |-----|   |-----|   |-----|
B|-----| |-----|   |-----|   |-----|   |-----|   |--7--|
G|-----| |--4--|   |--6--|   |--7--|   |--9--|   |--6--|
D|--4--| |--4--|   |--6--|   |--7--|   |--9--|   |--4--|
A|--4--| |--2--|   |--4--|   |--5--|   |--7--|   |-----|
E|--2--| |-----|   |-----|   |-----|   |-----|   |-----|



FORMA 2:

y quien sabe como estaremos en un tiempo más...
E|----------------------------------------|
B|----------------------------------------|
G|----------------------------------------|
D|--2---2-4----4-2------------------------|
A|----4------------4-2-0--2-0-4-2--2-0----|
E|-------------------------------------2--|

B  no cambias...
E|------5----|
B|--5-----7--|
G|----6------|
D|-----------|
A|-----------|
E|-----------|

tu arrogante forma de juzgar a los demás por su disfraz...
E|--------------------------------------------|
B|--------------------------------------------|
G|--------------------------------------------|
D|--4-2---------------------------------------|
A|------4-2-0--2-0-2-4--5-4-2-0-4| --0-2-4-1--|
E|--------------------------------------------|

(intrermedio)
E|----------------|
B|----------------|
G|----------------|
D|----------------|
A|--2-4-5--1-2-4--|
E|----------------|

cuando aceptaras la realidad...
E|------------------------|
B|------------------------|
G|------------------------|
D|------------------------|
A|--5-4-2-0-4| --0-2-4-1--|
E|------------------------|

F# (*)
de que no somos más!

*********************************************

FINAL:

FORMA 1:

(A)
E|--------------|
B|--------------|
G|-------2------|
D|--2------(4)--|
A|----4---------|
E|--------------|

  F#        B 
E|-----| |-----|
B|-----| |-----|
G|-----| |--4--|
D|--4--| |--4--|
A|--4--| |--2--|
E|--2--| |-----|

F#         B                F# 
Como estaremos en un tiempo más
(A)       F# 
cuando nada
       B 
sea igual


FORMA 2:

como estaremos en un tiempo más...
E|----------------------------------------|
B|----------------------------------------|
G|----------------------------------------|
D|--2---2-4----4-2------------------------|
A|----4------------4-2-0--2-0-4-2--2-0----|
E|-------------------------------------2--|

cuando nada sea igual
E|---------------------|
B|---------------------|
G|-------2-------------|
D|--2------4--4-2------|
A|----4-----------4-2--|
E|---------------------|

*********************************************

ORDEN:

INTRO
VERSO
PDC ORO
VERSO
PDC ORO
CORO
VERSO
PDC ORO
CORO
PARTE B
CORO
CORO
Otros videos de esta canción
    263 exhibiciones
      • ½ Tono
      • Am
      • Bbm
      • Bm
      • Cm
      • C#m
      • Dm
      • Ebm
      • Em
      • Fm
      • F#m
      • Gm
      • G#m
    • Agregar a la lista

    Afinação da cifra

    Afinador online

      Ops (: Contenido disponible solo en portugués.
      OK