Cifra Club

Brocacochi

Chancho En Piedra

Cifrado: Principal (guitarra y guitarra eléctrica)
Selo Cifra Club: esta cifra foi revisada para atender aos critérios oficiais da nossa Equipe de Qualidade.
tono: Bm
E|-----------------------------------|------------------------------------------|
B|-----------------------------------|------------------------------------------|
G|-----------------------------------|------------------------------------------|
D|-------------------------------5---|-------------------------------5----------|
-5-7-5-------------------5-7---7-|-5-7-5-------------------5-7---7--------
E|E|---------7-5-7-7-5-3-5-3-0---------|---------7-5-7-7-5-3-5-3-0----------------||


E|------------------------------------------------------------------------------|
B|------------------------------------------------------------------------------|
G|------------------------------------------------------------------------------|
D|-------------5---------5--5| -5---------------------------------5-------------
A|-0-5-7-7---7---7---5-7----------7---5-----5-7---------5-----5-7---7-5---------|
E|---------5-------5----------------7---5-0-----5-7-5-7---7-5-----------7-5-3-0-|


E|------------------------------------------------------------------------------|
B|------------------------------------------------------------------------------|
G|------------------------------------------------------------------------------|
D|-------------5---------5--5| -5---------------------------------5-------------
A|-0-5-7-7---7---7---5-7----------7---5-----5-7---------5-----5-7---7-5---------|
E|---------5-------5----------------7---5-0-----5-7-5-7---7-5-----------7-5-3-0-|


E|-----------------------------------|------------------------------------------|
B|-----------------------------------|------------------------------------------|
G|-----------------------------------|------------------------------------------|
D|-------------------------------5---|-------------------------------5----------|
-5-7-5-------------------5-7---7-|-5-7-5-------------------5-7---7--------
E|E|---------7-5-7-7-5-3-5-3-0---------|---------7-5-7-7-5-3-5-3-0----------------||


E|------------------------------------------------------------------------------|
B|------------------------------------------------------------------------------|
G|------------------------------------------------------------------------------|
D|-------------5---------5--5| -5---------------------------------5-------------
A|-0-5-7-7---7---7---5-7----------7---5-----5-7---------5-----5-7---7-5---------|
E|---------5-------5----------------7---5-0-----5-7-5-7---7-5-------------------|


E|------------------------------------------------------------------------------|
B|------------------------------------------------------------------------------|
G|------------------------------------------------------------------------------|
D|---5-------------------------------------5-------------------------------5----|
A|-5---5-5-5-7-5-------------------5-7-7-5---5-7-5-------------------5-7-5---5--|
E|---------------6-5-0-5-6-5-3-0-0-----------------6-5-0-5-6-3-0-0-0------------|


E|-----------------------------------------------------|------------------------|
B|-----------------------------------------------------|------------------------|
G|-----------------------------------------------------|------------------------|
D|-------------------------------5---------------------|------------------------|
A|-7-5---------------------5-7-5---5-7-5---------------|------------------------|
E|-----6-5-0-5-6-5-3-0-0-0---------------6-5-0-5-6-3-0-|------------------------|


E|------------------------------------------------------------------------------|
B|------------------------------------------------------------------------------|
G|------------------------------------------------------------------------------|
D|-------------5---------5--5| -5---0-5-5---5-----------------5---------------
A|-0-5-7-7---7---7---5-7----------7---------7---7---5-7-----5-7---7-5-----------|
E|---------5-------5------------------------------7-----7-5---------------------|


E|------------------------------------------------------------------------------|
B|------------------------------------------------------------------------------|
G|------------------------------------------------------------------------------|
D|-------------5---------5--5| -5---------------------------------5-------------
A|-0-5-7-7---7---7---5-7----------7---5-----5-7---------5-----5-7---7-5---------|
E|---------5-------5----------------7---5-0-----5-7-5-7---7-5-------------------|


E|------------------------------------------------------------------------------|
B|------------------------------------------------------------------------------|
G|------------------------------------------------------------------------------|
D|---5---------------------------------------5-------------------------------5--|
A|-5---5-5-5-7-5---------------------5-7-7-5---5-7-5-------------------5-7-5----|
E|---------------6-5-0-5-6-5-3-0-0-0-----------------6-5-0-5-6-3-0-0-0----------|


E|------------------------------------------------------------------------------|
B|------------------------------------------------------------------------------|
G|------------------------------------------------------------------------------|
D|---------------------------------5--------------------------------------------|
A|-5-7-5---------------------5-7-5---5-7-5--------------------------------------|
E|-------6-5-0-5-6-5-3-0-0-0---------------0-6-5-0-5-6--0-6-5-0-5-6--0-6-5-0-5--|


E|-------|-----------------------------------|----------------------------------|
B|-------|-----------------------------------|----------------------------------|
G|-------|-----------------------------------|----------------------------------|
D|-------|-------------------------------5---|----------------------------------|
A|-------|-5| -7-5-------------------5-7---7-|-5-7-5--------------------------
E|-6-3-0-|---------7-5-7-7-5-3-5-3-0---------|---------7-5-7-7-5-3-5-3-0--------|
Otros videos de esta canción
    46 exhibiciones
      • ½ Tono
      • Am
      • Bbm
      • Bm
      • Cm
      • C#m
      • Dm
      • Ebm
      • Em
      • Fm
      • F#m
      • Gm
      • G#m
    • Agregar a la lista

    Afinação da cifra

    Afinador online

      Ops (: Contenido disponible solo en portugués.
      OK