Cifra Club

Curanto

Chancho En Piedra

Cifrado: Principal (guitarra y guitarra eléctrica)
Selo Cifra Club: esta cifra foi revisada para atender aos critérios oficiais da nossa Equipe de Qualidade.
tono: E
Intro: Con distorción
QUIERO COMER CURANTO... QUIERO COMER CURANTO
QUE ME CALIENTE EL OYO COMADD  PARA CHANTARCELO
                ***
E|-------------------------------------------|-----------------------------------------|
B|-------------------------------------------|-----------------------------------------|
G|-------------------------------------------|-----------------------------------------|
D|-------------------------------------------|-----------------------------------------|
A|-------------0p2-----------------0p2---0p2-|------------0p2-----------------0p2------|
E|12/5-5-3-2-2-----0-0-0-3p5-3-2-2-----0-----|0-3p5-3-2-2-----0-0-0-3p5-3-2-2-----0----|

  Levantate hombre.....
                                                        X 2
E|------------------| |----------------------|
B|------------------| |---------------------|
G|4-4-4-6-8-8/9-9/0-| con tres ***                 |/14-14-14-16-17-16/12-|
D|------------------| |----------------------|
A|------------------| |----------------------|
E|------------------| |----------------------|

   reff F#                       reef B#m           reef G    reef F#   reef A 
E|---------|-4/0-|--------|-2/0-|---------|--------|---------|---------|---------|
B|---------|-4/0-|--------|-2/0-|---------|--------|---------|---------|---------|
G|---------|-4/0-|--------|-2/0-|---------|--------|---------|---------|---------|
D|---------|-4/0-|--------|-2/0-|-------4-|--------|---------|---------|---------|
A|-------4-|-----|------4-|-----| 2--------|--------|-------5-|-------4-|--------7|
E|2--------|-----|2-------|-----|---------|-0-12/0-|3--------|2--------|5--------|

E|---------------------| |-------|-------|-------|
B|---------------------| |-------|-------|-------|
G|------/12-12-11p12-9-| |-------|-------|-------|
D|---------------------| |-------|-----9-|-------|
A|---------------------| |-----7-|7------|-----9-|
E|0-2-3----------------|                   |5------|-------|7------|


E|------------------------------------------------------|-------|
B|------------------------------------------------------|-------|
G|------------------------------------------------------|-------|
D|------------------------------------------------------|-----9-|
A|/12-12-12-10-12-10-9-10-9-7-/12-12-12-10-12-10-9-10-5-|7------|
E|------------------------------------------------------|-------|
Otros videos de esta canción
    45 exhibiciones
      • ½ Tono
      • A
      • Bb
      • B
      • C
      • Db
      • D
      • Eb
      • E
      • F
      • F#
      • G
      • Ab
    • Agregar a la lista

    Afinação da cifra

    Afinador online

      Ops (: Contenido disponible solo en portugués.
      OK