Cifra Club

Da la Claridad a Nuestro Sol

Chancho En Piedra

Cifrado: Principal (guitarra y guitarra eléctrica)
Selo Cifra Club: esta cifra foi revisada para atender aos critérios oficiais da nossa Equipe de Qualidade.
tono: C#m
E|-----------------------------------------------|
B|-----------------------------------------------|
G|-------------------------------------9b--------|
D|--9----9-7-9-7-9/11-| 7-6-7---6-7-6-7------9----|
A|-----------------------------------------------|
E|-----------------------------------------------|

E|----------------------------------------------|
B|----------------------------------------------|
G|---------------------------7/9-7-6-7-6h7p6/4--|
D|--9----9-7-9-7-9-7-6-7------------------------|
A|----------------------------------------------|
E|----------------------------------------------|

E|-------------------------------------------|
B|-------12b14-12-10-12----------------------|
G|-------------------------------------------|
D|--9--------------------9-7-9-7-9b10-7-9-7--|
A|-------------------------------------------|
E|-------------------------------------------|

E|--------12-------12-------12--------------------|
B|--12h14----12h14----12h14----12h14b16-14-12-10--|
G|------------------------------------------------|
D|------------------------------------------------|
A|------------------------------------------------|
E|------------------------------------------------|

E|--11-10------------------------------------------|
B|--12-11------------------------------------------|
G|-------------------------------------------------|
D|----------9--9/11--11/13| -9/119--9-7-9-7-9-7--|
A|-------------------------------------------------|
E|-------------------------------------------------|

E|----------------------------------|
B|----------------------------------|
G|---------------7/9-7-6-7-6h7p6-4--|
D|--6-7-6h7p6-----------------------|
A|----------------------------------|
E|----------------------------------|
Otros videos de esta canción
    231 exhibiciones
      • ½ Tono
      • Am
      • Bbm
      • Bm
      • Cm
      • C#m
      • Dm
      • Ebm
      • Em
      • Fm
      • F#m
      • Gm
      • G#m
    • Agregar a la lista

    Afinação da cifra

    Afinador online

      Ops (: Contenido disponible solo en portugués.
      OK