Cifra Club

Disco Japi

Chancho En Piedra

Cifrado: Principal (guitarra y guitarra eléctrica)
Selo Cifra Club: esta cifra foi revisada para atender aos critérios oficiais da nossa Equipe de Qualidade.
tono: Em
    Em7   Am   A#m    G     D5    Bm 
E|---7--|--5--|--6--|--3--|-----|--7--|
B|---8--|--5--|--6--|--3--|-----|--7--|
G|---7--|--5--|--6--|--4--|--5--|--7--|
D|---9--|--7--|--8--|--5--|--5--|--9--|
A|---7--|--7--|--8--|--5--|--7--|--9--|
E|---X--|--5--|--6--|--3--|-----|--7--|

La cancion tiene dos guitarras, la base en canal limpio con un poco de distorción,
la segunda con distorción tipica de los Chancho en Piedra.

Intro:

E|-----------|
B|-----------|
G|-----------|
D|-----------|
A|-----------|
E|--3h5--3---|

Verso 1:

Em7 
Cuando crecí recién algo yo comprendí
Cada uno en su propio juez
Nada sacamos con discutir y criticar
Al condenar sin averiguar

Guitarra de fondo:
E|---7-7-x-7-x-7-x-7-7/6--|  x8
B|--8-8-8-x-8-x-8-x-8-8/7--|
G|---9-7-x-7-x-7-x-7-7/6--|
D|--9-9-9-x-9-x-9-x-9-9/8--|
A|---7-7-x-7-x-7-x-7-7/6--|
E|---x---x---x---x-----------|


Pre-Coro 1:

Am                               Am -A#m 
Hay que juzgar lo que uno hace mal
Bm                  D5 
y no escupir encima de lo que hacen los demás.

NOTA PARA PD-C ORO:
Cuando esta el cambio de Lam a La#m, solo es un cambio rapido, o osea,
que el La#m se toca una vez, no se continua rasgeando.

Coro:

Em7                    Am 
Quisiera alejar........en este segundo
  Em7                   Am 
Lo mal intencionado.....de este lugar
Em7                    G  
Que quiere derribar lo que hemos hecho
Am 
Durante años.

Intermedio:
Em7 

Verso 2:

Em7 
Mi creación es un mundo....totalmente nuevo
Otro universo, otro lugar....totalmente nuevo
No se puede analizar en forma convencional
Lo sabes bien, mi arte no compite

Am                          Am -A#m 
Voy a buscar mi propia verdad
Bm                      D5 
Sin importarme el gusto de los demás

Coro 2:

Em7                    Am 
Quisiera alejar........en este segundo
  Em7                   Am 
Lo mal intencionado.....de este lugar
Em7                    G  
Que quiere derribar lo que hemos hecho
Am 
Durante años.

Interludio: (Con distorcion)

E|----------------------|----------------------|----------------------|
B|----------------------|----------------------|----------------------|
G|----------------------|----------------------|----------------------|
D|-9-7------------------|-9-7------------------|-9-7------------------|
A|-----10-7----7-10-7---|-----10-7----7-10-7---|-----10-7----7-10-7---|
E|----------10----------|----------10----------|----------10----------|

Entre cada compas tocar E(6°)|-0-0-0-0-0|, mientras se canta

E|---------------------------------------------|
B|---------------------------------------------|
G|---------------------------------------------|
D|--9-7----------------------------------------|
A|------10-7----7-10-7-------------------------|
E|-----------10--------10-7-10-7-5-3-0-0-0-0-0-|

Si criticas lo que hago es un error
En vez de analizarme haz algo mejor
Solo conoce la verdadera intención
El propio autor


Solo de bajo

Verso 3:

Em7                          Am    A#m    Am         Em7 
Es fácil decir que eso esta malo y no hacer algo mejor,
Em7                          Am     A#m    Am          Em7 
Es fácil esconderse entre la gente y no gritarlo de frente


Solo guitarra:


    Em7           Am    A#m   Am        Em 
E|--------------------|---------------------|
B|--------------------|---------------------|
G|------7---7h9~------|------7---7h9~-------|
D|--7h9---9------9-7--|--7h9---9------9-7---|
A|--------------------|-------------------7-|
E|--------------------|---------------------|

Entre el solo y el ultimo coro se toca Lam y Sol 4 veces.

Coro 3: (x4)

Em7                    Am 
Quisiera alejar........en este segundo
  Em7                   Am 
Lo mal intencionado.....de este lugar
Em7                    G  
Que quiere derribar lo que hemos hecho
Am 
Durante años.

Final:

E|----------------------|----------------------|----------------------|
B|----------------------|----------------------|----------------------|
G|----------------------|----------------------|----------------------|
D|-9-7------------------|-9-7------------------|-9-7------------------|
A|-----10-7----7-10-7---|-----10-7----7-10-7---|-----10-7----7-10-7---|
E|----------10----------|----------10----------|----------10----------|

E|--------------------------|-----|
B|--------------------------|-----|
G|--------------------------|-----|
D|-9-7----------------------|--2--|
A|--------7-10-7------------|--2--|
E|-----10--------10-7-5-3-0-|--0--|
Otros videos de esta canción
    571 exhibiciones
      • ½ Tono
      • Am
      • Bbm
      • Bm
      • Cm
      • C#m
      • Dm
      • Ebm
      • Em
      • Fm
      • F#m
      • Gm
      • G#m
    • Agregar a la lista

    Afinação da cifra

    Afinador online

      Ops (: Contenido disponible solo en portugués.
      OK