Cifra Club

Frito

Chancho En Piedra

Cifrado: Principal (guitarra y guitarra eléctrica)
Selo Cifra Club: esta cifra foi revisada para atender aos critérios oficiais da nossa Equipe de Qualidade.
tono: Dm
Riff 1)
E|-----------------------------------------------------------------|
B|-----------------------------------------------------------------|
G|------------------------------------------------------5--6--5--5-|
D|-----3--5-----5--6--5--3--5--3------3--5-----5--6--5--3--4--3--3-|
A|--5--1--3--5--3--4--3--1--3--1---5--1--3--5--3--4--3-------------|
E|--3--------3---------------------3--------3----------------------|

A) Con Wha

   G                   A# 
Lo siento viejo ya se paso el tren
     C                         C# 
por más que insitas no va a volver

A)
sacaste pasaje a la vejez
Cooperaste...aceptalo pués

Coro)

 G     A#  G    G    C#  A#    G    A#  G  
Estas, frito,  estás frito,   estás frito
    C           A# 
Yo aún no estoy frito

A)
De qué te quejas ya se te paso la vieja
A)
signo peso entre ceja y ceja
A)
No queda + que esperar a fallecer
A)
tú te mueres y yo vuelvo a nacer

Coro x2)
Estas...


B)
C#               A#           C#   C     A# 
Yo aún no estoy frito, no me canso de gritar
Yo aún no estoy listo, no me come el gusanito
Tú ya estás frito, no me trates de imitar
Tú ya estas listo no te hagas el chistosito

A)
Hey, yo insisto es un hito...ya estás frito
A)
lo siento, tú futuro está escrito
A)
Quizás mañana el frito sea yo
A)
Pero hoy apestas tienes muy mal olor

Coro x2)
Estas...

B)
Yo aún no estoy frito no me cansó de gritar...

Riff 1)

Riff 2)
E|---------------------------------------|
B|---------------------------------------|
G|---------------------------------------|
D|---3-5-5-------3-5-5-------3-6-5-3-6~~-<-| se deja
A|-5-1-3-3-5---5-1-3-3-5---5-1-4-3-1-4~~-| Sonando
E|-3-------3---3-------3---3-------------|

Aqui viene el solo de mi amigo K-Vzon ( pero aun no lo sako )

Riff 3)

E|--------------------------------------|
B|--------------------------------------|
G|--------------------------------------|
D|---3-5-6-5-3-5-3------3----------6-5--|
A|-5-1-3-4-3-1-3-1---5-5-1-5-5-3-5-4-3--|
E|-3-----------------3-3---3-3-1-3------|

E|------------------------|
B|------------------------|
G|-------------------7-6--|
D|---3-5-6-5-3-5-3---5-4--|
A|-5-1-3-4-3-1-3-1--------|
E|-3----------------------|

E|--------------------------------------|
B|--------------------------------------|
G|--------------------------------------|
D|---3-5-6-5-3-5-3------3----------6-5--|
A|-5-1-3-4-3-1-3-1---5-5-1-5-5-3-5-4-3--|
E|-3-----------------3-3---3-3-1-3------|

E|------------------------------------|
B|------------------------------------|
G|-------------------7-7-6-6-5-5-4~~--|
D|---3-5-6-5-3-5-3---5-5-4-4-3-3-2~~--|
A|-5-1-3-4-3-1-3-1--------------------|
E|-3----------------------------------|

Ahora viene el solo del Felipe

Riff 4) x 3 lo del parentesis viene desde la 2da vez

E|--------------------------------------------------------------|
B|--------------------------------------------------------------|
G|--------------------------------------------------------------|
D|-----5---3----------------------------------------------------|
A|-------5---5--1-4-3-1--3-1---1-3-----1-3----1-3--4-4-3---1----|
E|-(3)-----------------------1-------3------3------------3---3--|

Riff 5)

E|-15------13------<15>-<18>--| Aqui Tokas---15/17--17/20--
B|-----15------15-------------| Los mismos-----------------
G|----------------------------p| untos pero----------------
D|----------------------------| mas rapido-----------------
A|-------------------------------------------------------|
E|-------------------------------------------------------|

Gran Tema Para los Fanaticos de Chancho Y Marranos de Corazon
que encuentran En sus Letras un Gran Estilo de Vida..!!!!
Agregenme a su msn...!!!
Otros videos de esta canción
    33 exhibiciones
      • ½ Tono
      • Am
      • Bbm
      • Bm
      • Cm
      • C#m
      • Dm
      • Ebm
      • Em
      • Fm
      • F#m
      • Gm
      • G#m
    • Agregar a la lista

    Afinação da cifra

    Afinador online

      Ops (: Contenido disponible solo en portugués.
      OK