Cifra Club

Funk del balsa

Chancho En Piedra

Cifrado: Principal (guitarra y guitarra eléctrica)
Selo Cifra Club: esta cifra foi revisada para atender aos critérios oficiais da nossa Equipe de Qualidade.
tono: E

E|-7-4-|
B|-8-5-|
G|-7-4-|
D|-----|
A|-----|
E|-----|

Coro

E|-7-------|
B|-8-2-5-2-|
G|-7-------|
D|---------|
A|---------|
E|---------|

Solo

E|---------------------------------------------------------------11b(12)-------------10-10-11b(12)-10-|
B|-10h11b(12)-10-8-5-8-5-8-8-8-8h11b(12)-11-10-8-10-11-10-8-10-8---------11-8-5-8-10------------------|
G|----------------------------------------------------------------------------------------------------|
D|----------------------------------------------------------------------------------------------------|
A|----------------------------------------------------------------------------------------------------|
E|----------------------------------------------------------------------------------------------------|

E|-----------------------------3h5p3--|
B|-8-10-8-10b(11)10-8-5-8-3h5---------|
G|------------------------------------|
D|------------------------------------|
A|------------------------------------|
E|------------------------------------|
Otros videos de esta canción
    39 exhibiciones
      • ½ Tono
      • A
      • Bb
      • B
      • C
      • Db
      • D
      • Eb
      • E
      • F
      • F#
      • G
      • Ab
    • Agregar a la lista

    Afinação da cifra

    Afinador online

      Ops (: Contenido disponible solo en portugués.
      OK