Cifra Club

Funky Tu Madre

Chancho En Piedra

Cifrado: Principal (guitarra y guitarra eléctrica)
Selo Cifra Club: esta cifra foi revisada para atender aos critérios oficiais da nossa Equipe de Qualidade.
tono: Em
E|---------------------------------------------------------------------------|
B|--5----------------5---5--x--x--5--5--x--5--x--5--x--5--7---7--7---7--7----|
G|--5----------------5---5--x--x--5--5--x--5--x--5--x--5--7---7--7---7--7----|
D|--5----------------5---5--x--x--5--5--x--5--x--5--x--5--7---7--7---7--7----|
A|---------------------------------------------------------------------------|
E|---------------------------------------------------------------------------|

E|---------------------------------------------------------------------------|
B|--5---5--x--x--5--x--5--x--5--x--7--x--7--x--7--7---7--7-------------------|
G|--5---5--x--x--5--x--5--x--5--x--7--x--7--x--7--7---7--7-------------------|
D|--5---5--x--x--5--x--5--x--5--x--7--x--7--x--7--7---7--7-------------------|
A|---------------------------------------------------------------------------|
E|---------------------------------------------------------------------------|

E|---------------------------------------------------------------------------|
B|--5---5--x--x--5--x--5--x--5--x--5--x--5--x--7--x--7--x--7--7---7--7-------|
G|--5---5--x--x--5--x--5--x--5--x--5--x--5--x--7--x--7--x--7--7---7--7-------|
D|--5---5--x--x--5--x--5--x--5--x--5--x--5--x--7--x--7--x--7--7---7--7-------|
A|---------------------------------------------------------------------------|
E|---------------------------------------------------------------------------|

E|---------------------------------------------------------------------------|
B|--5---5--x--x--5--x--5--x--5--x--5--x--x--x--x-----------------------------|
G|--5---5--x--x--5--x--5--x--5--x--5--x--x--x--x-----------------------------|
D|--5---5--x--x--5--x--5--x--5--x--5--x--x--x--x-----------------------------|
A|---------------------------------------------------------------------------|
E|---------------------------------------------------------------------------|


[Verse 1]

E|---------------------------------------------------------------------------|
B|----5---5--x--x--5--5--x--5--x--5--x--5--7---7--7---7--7-------------------|
G|----5---5--x--x--5--5--x--5--x--5--x--5--7---7--7---7--7-------------------|
D|----5---5--x--x--5--5--x--5--x--5--x--5--7---7--7---7--7-------------------|
A|---------------------------------------------------------------------------|
E|---------------------------------------------------------------------------|

E|---------------------------------------------------------------------------|
B|--5---5--x--x--5--x--5--x--5--x--7--x--7--x--7--7---7--7-------------------|
G|--5---5--x--x--5--x--5--x--5--x--7--x--7--x--7--7---7--7-------------------|
D|--5---5--x--x--5--x--5--x--5--x--7--x--7--x--7--7---7--7-------------------|
A|---------------------------------------------------------------------------|
E|---------------------------------------------------------------------------|



[Chorus]

E|-----------------------------------------------------------------------------------------------|
B|--7---7--7---7--7---------------------------------5--5---x--x--5--x--5---5--5---7--7--7--------|
G|--7---7--7---7--7---------5------5(| Bend)-5--------5--5---x--x--5--x--5---5--5---7--7--7--------|
D|--7---7--7---7--7---5--7-----7--------------7-----5--5---x--x--5--x--5---5--5---7--7--7--------|
A|--5---5--5---5--5------------------------------------------------------------------------------|
E|-----------------------------------------------------------------------------------------------|

E|-----------------------------------------------------------------------------------------------|
B|--7---7--7---7--7---------------------------------5--5---x--x--5--x--5---5--5---7--7--7--------|
G|--7---7--7---7--7---------5------5(| Bend)-5--------5--5---x--x--5--x--5---5--5---7--7--7--------|
D|--7---7--7---7--7---5--7-----7--------------7-----5--5---x--x--5--x--5---5--5---7--7--7--------|
A|--5---5--5---5--5------------------------------------------------------------------------------|
E|-----------------------------------------------------------------------------------------------|



[Verse 2]

E|---------------------------------------------------------------------------|
B|----5---5--x--x--5--5--x--5--x--5--x--5--7---7--7---7--7-------------------|
G|----5---5--x--x--5--5--x--5--x--5--x--5--7---7--7---7--7-------------------|
D|----5---5--x--x--5--5--x--5--x--5--x--5--7---7--7---7--7-------------------|
A|---------------------------------------------------------------------------|
E|---------------------------------------------------------------------------|

E|---------------------------------------------------------------------------|
B|--5---5--x--x--5--x--5--x--5--x--7--x--7--x--7--7---7--7-------------------|
G|--5---5--x--x--5--x--5--x--5--x--7--x--7--x--7--7---7--7-------------------|
D|--5---5--x--x--5--x--5--x--5--x--7--x--7--x--7--7---7--7-------------------|
A|---------------------------------------------------------------------------|
E|---------------------------------------------------------------------------|



[Chorus]

E|-----------------------------------------------------------------------------------------------|
B|--7---7--7---7--7---------------------------------5--5---x--x--5--x--5---5--5---7--7--7--------|
G|--7---7--7---7--7---------5------5(| Bend)-5--------5--5---x--x--5--x--5---5--5---7--7--7--------|
D|--7---7--7---7--7---5--7-----7--------------7-----5--5---x--x--5--x--5---5--5---7--7--7--------|
A|--5---5--5---5--5------------------------------------------------------------------------------|
E|-----------------------------------------------------------------------------------------------|

E|--------------------------------------------------------------------------------------------------|
B|--7---7--7---7--7---------------------------------5--5--5--5--5--5--5--5--5--5--5--5--7--7--7--7--|
G|--7---7--7---7--7---------5------5(| Bend)-5--------5--5--5--5--5--5--5--5--5--5--5--5--7--7--7--7--|
D|--7---7--7---7--7---5--7-----7--------------7-----5--5--5--5--5--5--5--5--5--5--5--5--7--7--7--7--|
A|--5---5--5---5--5---------------------------------------------------------------------------------|
E|--------------------------------------------------------------------------------------------------|

E|-------------------------------------------|
B|--7---7--7---7--7--x--x--5--5--x--x--4--4--|
G|--7---7--7---7--7--x--x--5--5--x--x--4--4--|
D|--7---7--7---7--7--x--x--5--5--x--x--4--4--|
A|--5---5--5---5--5--x--x--3--3--x--x--2--2--|
E|-------------------------------------------|

E|-------------------------------------------|
B|--7---7--7---7--7--x--x--5--5--x--x--4--4--|
G|--7---7--7---7--7--x--x--5--5--x--x--4--4--|
D|--7---7--7---7--7--x--x--5--5--x--x--4--4--|
A|--5---5--5---5--5--x--x--3--3--x--x--2--2--|
E|-------------------------------------------|

E|-------------------------------------------|
B|--7---7--7---7--7--x--x--5--5--x--x--4--4--|
G|--7---7--7---7--7--x--x--5--5--x--x--4--4--|
D|--7---7--7---7--7--x--x--5--5--x--x--4--4--|
A|--5---5--5---5--5--x--x--3--3--x--x--2--2--|
E|-------------------------------------------|

E|-------------------------------------------|
B|--7---7--7---7--7--x--x--5--5--x--x--4--4--|
G|--7---7--7---7--7--x--x--5--5--x--x--4--4--|
D|--7---7--7---7--7--x--x--5--5--x--x--4--4--|
A|--5---5--5---5--5--x--x--3--3--x--x--2--2--|
E|-------------------------------------------|


[Interlude]

E|---------------------------------------------------------------------------|
B|--5\----------5\-------7--7---7--7---7--5\------5\-----7--7--7--7--7--7----|
G|--5\----------5\-------7--7---7--7---7--5\------5\-----7--7--7--7--7--7----|
D|--5\----------5\-------7--7---7--7---7--5\------5\-----7--7--7--7--7--7----|
A|---------------------------------------------------------------------------|
E|---------------------------------------------------------------------------|

E|------------------------------|
B|------------------------------|
G|------------------------------|
D|------7-----------------------|
A|------------------3--3--5h----|
E|--5-------0--3----------------|

E|------------------------------|
B|------------------------------|
G|------------------------------|
D|------7-----------------------|
A|------------------3--3--5h----|
E|--5-------0--3----------------|

E|------------------------------|
B|------------------------------|
G|------------------------------|
D|------7-----------------------|
A|------------------3--3--5h----|
E|--5-------0--3----------------|

E|------------------------------|
B|------------------------------|
G|------------------------------|
D|------7-----------------------|
A|------------------3--3--5h----|
E|--5-------0--3----------------|

E|------------------------------|
B|------------------------------|
G|------------------------------|
D|------7-----------------------|
A|------------------3--3--5h----|
E|--5-------0--3----------------|

E|------------------------------|
B|------------------------------|
G|------------------------------|
D|------7-----------------------|
A|------------------3--3--5h----|
E|--5-------0--3----------------|

E|------------------------------|
B|------------------------------|
G|------------------------------|
D|------7-----------------------|
A|------------------3--3--5h----|
E|--5-------0--3----------------|

E|------------------------------|
B|------------------------------|
G|------------------------------|
D|------7-----------------------|
A|------------------3--3--5h----|
E|--5-------0--3----------------|


[Chorus]

E|-----------------------------------------------------------------------------------------------------|
B|-----------------------------------------------------------------------------------------------------|
G|---7b------------5-----5b--5------5b--5-----5------5b-----5------7b------------5-----5b--5-----5-----|
D|--------5--5--7-----7---------7----------7-----7-------7-----7--------5--5--7-----7---------7-----7--|
A|-----------------------------------------------------------------------------------------------------|
E|-----------------------------------------------------------------------------------------------------|

E|-----------------------------------------------------------|
B|------------------------------7---7--7---7--7--7--5--5--4--|
G|---5--7--7b--7--5-----5-------7---7--7---7--7--7--5--5--4--|
D|7------------------7-----7----7---7--7---7--7--7--5--5--4--|
A|------------------------------5---5--5---5--5--5--3--3--2--|
E|-----------------------------------------------------------|

e|- ----------------------------------------------------------------|
B|--7---7--7---7--7--7--5--5--4-------------------------------------|
G|--7---7--7---7--7--7--5--5--4-------------------------------------|
D|--7---7--7---7--7--7--5--5--4-------------------------------------|
A|--5---5--5---5--5--5--3--3--2-------------------------------------|
E|------------------------------------------------------------------|

e|- ----------------------------------------------------------------|
B|--7---7--7---7--7--7--5--5--4-------------------------------------|
G|--7---7--7---7--7--7--5--5--4-------------------------------------|
D|--7---7--7---7--7--7--5--5--4-------------------------------------|
A|--5---5--5---5--5--5--3--3--2-------------------------------------|
E|------------------------------------------------------------------|

E|------------------------------------------------------------------|
B|--7---7--7---7--7--7--5--5--4-------------------------------------|
G|--7---7--7---7--7--7--5--5--4-------------------------------------|
D|--7---7--7---7--7--7--5--5--4-------------------------------------|
A|--5---5--5---5--5--5--3--3--2-------------------------------------|
E|------------------------------------------------------------------|


[Outro]

E|---------------------------------------------------------------------------|
B|----5---5--x--x--5--5--x--5--x--5--x--5--7---7--7---7--7-------------------|
G|----5---5--x--x--5--5--x--5--x--5--x--5--7---7--7---7--7-------------------|
D|----5---5--x--x--5--5--x--5--x--5--x--5--7---7--7---7--7-------------------|
A|---------------------------------------------------------------------------|
E|---------------------------------------------------------------------------|

E|---------------------------------------------------------------------------|
B|--5---5--x--x--5--x--5--x--5--x--7--x--7--x--7--7---7--7-------------------|
G|--5---5--x--x--5--x--5--x--5--x--7--x--7--x--7--7---7--7-------------------|
D|--5---5--x--x--5--x--5--x--5--x--7--x--7--x--7--7---7--7-------------------|
A|---------------------------------------------------------------------------|
E|---------------------------------------------------------------------------|

E|---------------------------------------------------------------------------|
B|----5---5--x--x--5--5--x--5--x--5--x--5--7---7--7---7--7-------------------|
G|----5---5--x--x--5--5--x--5--x--5--x--5--7---7--7---7--7-------------------|
D|----5---5--x--x--5--5--x--5--x--5--x--5--7---7--7---7--7-------------------|
A|---------------------------------------------------------------------------|
E|---------------------------------------------------------------------------|

E|---------------------------------------------------------------------------|
B|----5---5--x--x--5--x--5--x--5--x--5--x--7--7---7--7---5-------------------|
G|----5---5--x--x--5--x--5--x--5--x--5--x--7--7---7--7---5-------------------|
D|----5---5--x--x--5--x--5--x--5--x--5--x--7--7---7--7---5-------------------|
A|---------------------------------------------------------------------------|
E|---------------------------------------------------------------------------|



************************************

| x  Dead note
| \  Slide down
| h  Hammer-on
| b  Bend
Otros videos de esta canción
    254 exhibiciones
      • ½ Tono
      • Am
      • Bbm
      • Bm
      • Cm
      • C#m
      • Dm
      • Ebm
      • Em
      • Fm
      • F#m
      • Gm
      • G#m
    • Agregar a la lista

    Afinação da cifra

    Afinador online

      Ops (: Contenido disponible solo en portugués.
      OK