Cifra Club

Guach perry

Chancho En Piedra

Cifrado: Principal (guitarra y guitarra eléctrica)
Selo Cifra Club: esta cifra foi revisada para atender aos critérios oficiais da nossa Equipe de Qualidade.
tono: Bm

    intro con wha wha  estrofa con wha wha y chamullo
E|---x--x--x--x--15--|---------------------------------------------------|
B|---x--x--x--x--12--|---------------------------------------------------|
G|---x--x--x--x--12--|--12----------------------12------12--14^--(14)----|
D|---x--x--x--x------|------14--14--12--14--14------14-------------------|
A|---x--x--x--x------|---------------------------------------------------|
E|---x--x--x--x------|---------------------------------------------------|



E|-----------------------------------------------------------------|-----|
B|-----------------------------------------------------------------|-----|
G|---12----------12----------------------12------12h14p12----------|-----|
D|-------12----------14--14--12--14--14------14------------14--12--|-----|
A|-----------14----------------------------------------------------|-----|
E|-----------------------------------------------------------------|-----|


     precoro con distorsion e improvisacion
E|-----------------------------------------------------------------------|
B|--------12------12------12------12------12---------12~~~---~~~--12-----|
G|--------12------12------12------12------12---------12-----------12-----|
D|---/14------14------14------14------14------14~~~-------~~~------------|
A|-----------------------------------------------------------------------|
E|-----------------------------------------------------------------------|



E|-----------------------------------------------------------------------|
B|-------12-------15----------12------12-----12-----12-------------------|
G|-------12--14^------14--12--12------12--x--12--x--12h14--12------------|
D|---14---------------------------14---------------------------12h14-----|
A|-----------------------------------------------------------------------|
E|-----------------------------------------------------------------------|



E|-----------------------------------------------------------------------|
B|---------------------------------12------12~~~--12------12-------------|
G|---12--14--14^--14--12h14p12-----12------12-----12------12--14--14-----|
D|-------------------------------------14-------------14-----------------|
A|-----------------------------------------------------------------------|
E|-----------------------------------------------------------------------|



E|-----------------------------------------------------------------------|
B|--------------12------12-----12-----12---------------------------------|
G|---^--12------12------12--x--12--x--12h14--12---------12--14--14^------|
D|----------14------14---------------------------12h14-------------------|
A|-----------------------------------------------------------------------|
E|-----------------------------------------------------------------------|


                 coro(notas bases)
E|-------------|--------------|------------------------------------------|
B|-------------|--------------|------------------------------------------|
G|---14~~~-----|--------------|------------------------------------------|
D|-------------|--7--5--4--2--|------------------------------------------|
A|-------------|--7--5--4--2--|------------------------------------------|
E|-------------|--5--3--2--0--|------------------------------------------|


    solo guitarra con wha  y  variaciones
E|-----------10----------------------------------------------------------|
B|---14--12--8----------------------------------------------------15-----|
G|---14--12--9----------12--14---------12--14^--(14)--12--14--12---------|
D|---------------12h14----------12h14------------------------------------|
A|-----------------------------------------------------------------------|
E|-----------------------------------------------------------------------|



E|-----------------------------------------------------------------------|
B|-------------------------------------12--------12--12-----12-----------|
G|---14^--(14)--12--14--12------12-----12--x--x--12--12-----12--x--x-----|
D|--------------------------14-------------------------------------------|
A|-----------------------------------------------------------------------|
E|-----------------------------------------------------------------------|



E|-----------------------------------------------------------------------|
B|-----------------------------------------------------------------------|
G|-------------12--x---------12--14--14^--(14)--12--14--12--14--12-------|
D|------12h14---------12h14----------------------------------------------|
A|-----------------------------------------------------------------------|
E|-----------------------------------------------------------------------|



E|-----------------------------------------------------------------------|
B|-----------------------------------------------------------------------|
G|---14p12------12----------------------------------------------12-------|
D|----------14------14--12------12----------------------12--14-----------|
A|--------------------------14------14--13--12--13--14-------------------|
E|-----------------------------------------------------------------------|


              parte antes del lalo rapeada
E|----------|------------------------------------------------------------|
B|----------|--14~~~--12~~~--11~~~---------------------------------------|
G|----------|--14-----12-----11------------------------------------------|
D|---14~~~--|------------------------------------------------------------|
A|----------|------------------------------------------------------------|
E|----------|------------------------------------------------------------|





========================================================================
==                       TABA TUD  EXPA NATION                        ==
========================================================================

E|----------| ----------                ----t---
B|----5h8---| Hammeron       ----(8)--- Ghost          ----6--- Tap
G|----------| ---------- Note           --------
D|----5p8---| Pulloff        ----------                --------

E|----------| ----------                -----p--
B|----5/8---| Slide Up       -----x---- Dead           -----7-- Pop
G|----------| ---------- Note           --s-----
D|----58---| Slide Down     ----------                --5----- Slap

E|----------| ||------|| Repeat         --------
B|----5~~~--| Vibrato        ||*----*||                ---5^--- Bend
G|----------| ||*----*||                --------
D|----------| ||------||                --------

E|----------| ----------                --------
-4:------- Time           ----------                --------
-4:------- Signature      ----------                --------
E|----------| ----------                --------

Rhythm:
  w = whole note            W = dotted whole
  h = half note             H = dotted half
  q = quarter note          Q = dotted quarter
  e = eighth note           E = dotted eighth
  s = sixteenth note        S = dotted sixteenth
  t = 32nd note             T = dotted 32nd
  x = 64th note             X = dotted 64th
  ^ = triplet
Otros videos de esta canción
    251 exhibiciones
      • ½ Tono
      • Am
      • Bbm
      • Bm
      • Cm
      • C#m
      • Dm
      • Ebm
      • Em
      • Fm
      • F#m
      • Gm
      • G#m
    • Agregar a la lista

    Afinação da cifra

    Afinador online

      Ops (: Contenido disponible solo en portugués.
      OK