Cifra Club

Güeina

Chancho En Piedra

Cifrado: Principal (guitarra y guitarra eléctrica)
Selo Cifra Club: esta cifra foi revisada para atender aos critérios oficiais da nossa Equipe de Qualidade.
tono: C
Intro) Con Harto Power X 2

   F#5     F5     G5     F#5 
E|------------------------------|
B|------------------------------|
G|------------------------------|
D|--4-4-4--3-3-3--5-5-5--4-4-4--|
A|--4-4-4--3-3-3--5-5-5--4-4-4--|
E|--2-2-2--1-1-1--3-3-3--2-2-2--|

    F#5    F5      Em 
E|--------------------------------|
B|--------------------------------|
G|--------------------------------|
D|--4-4-4--3-3-3----2-2-2-2-2-2-2-|
A|--4-4-4--3-3-3----2-2-2-2-2-2-2-|
E|--2-2-2--1-1-1----0-0-0-0-0-0-0-|

En la Primera vez el Felipe Marca E  ( 6 Cuerda al aire )

A)

F#5             F5 
Nariz respingada
       G5        F#5 
Ni una muela picada ,
F#5  F5  Em 
90-60-90,

A)
Nunca faltó nada en la casa de barbie
Nunca tuvo la necesidad de pensar

B)
  F5                     F#5 
E|----------------------------------|
B|----------------------------------|
G|----------------------------------|
D|----------------------4-4-4-4-4-4-|
A|----1--3------1--3----4-4-4-4-4-4-|
E|-3---------3----------2-2-2-2-2-2-|
 Gueina      gueina   Estás contratada,

B)Gueina , gueina Siéntate acá
B)Gueina , gueina Siéntete en casa,
B)Gueina , gueina Estás con papá

C)Esto es el punteo En la cancion!!( a Peo )

E|---------------------------------------------|
B|---------------------------------------------|
G|-8/9--8--6--8--6-----6-----------------------|
D|------------------8-----8--6--8--------------|
A|---------------------------------------------|
E|---------------------------------------------|

E|---------------------------------------------|
B|---------------------------------------------|
G|-8/9--8--6--8--6-----6-----------------------|
D|------------------8-----8--6--8--6--6--6b-6b-|
A|---------------------------------------------|
E|---------------------------------------------|

C)
En este pais de calentones
No te hace falta estudiar
C)Basta nacer mina rica
Y ser bien dotada de atrás

B)Gueina , gueina Estás contratada,
B)Gueina , gueina Siéntate acá
B)Gueina , gueina Siéntete en casa,
B)Gueina , gueina Estás con papá

C)Sonrisa perfecta
Muy buenas piernas
Correcta forma de hablar
C)Naciste y ya lo tienes todo
No te preocupes de nada maaaaaaaas

Intro)
Gueina , gueina,gueina vamos nena con papá
Gueina , gueina,gueina siéntate en mis piernas
Intro)
Gueina , gueina,gueina sonríele a papá
Gueina , gueina,gueina cochita pechocha .
Otros videos de esta canción
    31 exhibiciones
      • ½ Tono
      • A
      • Bb
      • B
      • C
      • Db
      • D
      • Eb
      • E
      • F
      • F#
      • G
      • Ab
    • Agregar a la lista

    Afinação da cifra

    Afinador online

      Ops (: Contenido disponible solo en portugués.
      OK