Cifra Club

Hacia el Ovusol

Chancho En Piedra

Cifrado: Principal (guitarra y guitarra eléctrica)
Selo Cifra Club: esta cifra foi revisada para atender aos critérios oficiais da nossa Equipe de Qualidade.
tono: E
INTRO
E||--------------------------------|
B||--------------------------------|
G||--------------------------------|
D||--5--6--7-----------------------|
A||-----------5--6--5-----5-----7--|
E||--------------------8-----8--5--|


E|----------------------------5--|----------------------------------|
B|----------------------------5--|----------------------------------|
G|----------------------------5--|----------------------------------|
D|--5--6--7-------------------5--|-5--6--7--------------------------|
A|-----------5--6--5-----5-------|----------5h6--5---5--5h6--5---5--|
E|--------------------8-----8----|-----------------8-----------8----|


E|----------------------------------------| |
B|-----------------------------------13^--| |
G|----------------------------------------| |
D|----------------------------------------| |
A|--5--6--5-----5--5--6--5-----5--7-------| |
E|-----------8--------------8-----5-------| |


   Estrofa
E||--------------------|------------------------------|
B||--------------------|------------------------------|
D||*-------------------|------------------------------|
G||*-------------------|------------------------------|
A||---5--7--x-x-x-7-7-7|--5h6--5-----5--7--x-x-x-7-7-7|
E||------5--x-x-x-5-5-5|----------8-----5--x-x-x-5-5-5|


E|------------------------------|----------------------------| |
B|------------------------------|---------------5--13^--13^--| |
G|------------------------------|---------------5-----------*| |
D|------------------------------|---------------5-----------*| |
A|--5h6--5-----5--7--x-x-x-7-7-7|-5h6--5-----5---------------| |
E|----------8-----5--x-x-x-5-5-5|---------8------------------| |


   Coro                                          3x
E||--------------------------|-------------------||
B||--------------------------|-------------------||
D||*-------------------------|------------------*||
G||*-------------------------|------------------*||
A||--(5)-5h6---5-----5-------|--0-h-3-p-0--------||
E||---------------8-----8----|-------------3--5--||
     ()=se toca desde la segunda vez

E|-------------------------------| |
B|-------------------------------| |
G|-------------------------------| |
D|-------------------------------| |
A|-5-5h6--5-----5h6--5----5h6-5--| |
E|-----------8----------8-------8| |


E|---------------------------------------| |
B|---------------------------------------| |
G|---------------------------------------| |
D|-----5---------------------------------| |
A|-5h6---7-5-7-5-------------------------| |
E|---------------8-5-5-8-5-3-5-3-5-5-----| |


E|----------------|
B|----------------| tocar
G|----------------| hartas
D|----------------| veces
A|-0h3p0----------|
E|-------3-5-3-5-5|

duro es el camino.....

E|-------------------------------|
B|-------------------------------|
G|-------------------------------|
D|-------------------------------|
A|-0h3p0-------7---5-------------|
E|-------3-5-3---3---------------|
Otros videos de esta canción
    109 exhibiciones
      • ½ Tono
      • A
      • Bb
      • B
      • C
      • Db
      • D
      • Eb
      • E
      • F
      • F#
      • G
      • Ab
    • Agregar a la lista

    Afinação da cifra

    Afinador online

      Ops (: Contenido disponible solo en portugués.
      OK