Cifra Club

Hermanos marranos

Chancho En Piedra

Cifrado: Principal (guitarra y guitarra eléctrica)
Selo Cifra Club: esta cifra foi revisada para atender aos critérios oficiais da nossa Equipe de Qualidade.
tono: C#m
intro

E|------------------------------------------------------|
B|------------------------------------------------------|
G|------------------------------------------------------|
D|---9-------9------9-9-9--------9/199----------------|
A|---7-------7------7-7-7-------------------------------|
E|------------------------------------------------------|

verso   lo de ()al final

E|-------------------------------|
B|-------------------------------|
G|-------------------------------|
D|-9999999999999----7777-(5555)--|
A|-7777777777777----5555-(3333)--|
E|-------------------------------|

coro

E|------------------------------------------------------|
B|------------------------------------------------------|
G|--444444----------44444-----444444--------------------|
D|--222222-44444444-22222-444-222222---7-6-4-6-7-6-4-2--|
A|---------22222222-------222---------------------------|
E|------------------------------------------------------|

post-coro esta parte no te confi mucho

E|------------------------------------------------------|
B|------------------------------------------------------|
G|------------------------------------------------------|
D|-------------------------------------7-6-4-6-7-6-4-2--|
A|-----12-12h10-----12-12h10--12-12h10------------------|
E|-(12)---------(12)------------------------------------|

()= muchas veses

solo, 3ºverso

E|------------------------------------------------------|
B|------------------------------------------------------|
G|------------------------------------------------------|
D|------------------------------------------------------|
A|--2--77-6-4-6-7-6-4-6-4-------2--77-6-4-6-7-6-4-6-4---|
E|--0--55-4-2-4-5-4-2-4-2-------0--55-4-2-4-5-4-2-4-2---|


final

E|----------------------|
B|----------------------|
G|----------------------|
D|----------------------|
A|----------------------|
E|-5-4-2-5-4-2-5-4-2----|


intro                      /=deslisar arriba
verso                      =deslisar abajo
coro                       *=vibrar
verso
coro
post-coro
solo
3º verso
coro
final


bueno hermanos marranos y hermanas marranas esta es la
mejor cancion del marca, un regalo de raul 'KVZon
Brandon Boyd' haci que ViVa ChIlE mIeRdA y LoS cHaNcHo
En PiEdRa!!!!!!!!!!!!!!!!!!!!!!!!!!!!!!!!!!!!!!
Otros videos de esta canción
    38 exhibiciones
      • ½ Tono
      • Am
      • Bbm
      • Bm
      • Cm
      • C#m
      • Dm
      • Ebm
      • Em
      • Fm
      • F#m
      • Gm
      • G#m
    • Agregar a la lista

    Afinação da cifra

    Afinador online

      Ops (: Contenido disponible solo en portugués.
      OK