Cifra Club

Jueves Locos

Chancho En Piedra

Cifrado: Principal (guitarra y guitarra eléctrica)
Selo Cifra Club: esta cifra foi revisada para atender aos critérios oficiais da nossa Equipe de Qualidade.
tono: Em

E|----------------------------|
B|----------------------------|
G|----------------------------|
D|-------2--5-----------------|
A|-3--5-----------------------|
E|----------------------------|

A 
Hoy es Jueves Locos
Salgo con mis amigos y...

quedamos como piojo
E|----------------------------|
B|----------------------------|
G|----------------------------|
D|-------2--5-----------------|
A|-3--5-----------------------|
E|----------------------------|

A 
es recomendable
hacer una pausa en esta...

 vida estresante
E|----------------------------|
B|----------------------------|
G|----------------------------|
D|-------2--5-----------------|
A|-3--5-----------------------|
E|----------------------------|
A 
Necesito darme un relax
Oír nada quiero pensar
Que comiense la diversAU!

Traigan mas Alcohol!
E|----------------------------|
B|----------------------------|
G|----------------------------|
D|-------2--5-----------------|
A|-3--5-----------------------|
E|----------------------------|

A 
Bailar, tomar y el mundo arreglar
en una noche como hoy, todo puede pasar!

Salir! Bailar! Tomar!
E|-----------------------------------------| se repite 3 veces
B|-----------------------------------------|
G|-8h7-5h7--8-8h7-5h7--8-8h7-5h7-----------|
D|-----------------------------------------|
A|--------------------------------3--5--0--|
E|-----------------------------------------|

Jueves Locos!
E|----------------------------|
B|----------------------------|
G|----------------------------|
D|-------2--5-----------------|
A|-3--5-----------------------|
E|----------------------------|

A 
Hay Lanzamiento
Estan invitados a...

 este gran evento
E|----------------------------|
B|----------------------------|
G|----------------------------|
D|-------2--5-----------------|
A|-3--5-----------------------|
E|----------------------------|
A 
De cuando en cuando
Me gusta estar con mi...

 gente celebrando
E|----------------------------|
B|----------------------------|
G|----------------------------|
D|-------2--5-----------------|
A|-3--5-----------------------|
E|----------------------------|

A 
Mas entretencion, alcohol
Mas cerveza por favor
Que no pare la diversiAU!

No tengo el control!
E|----------------------------|
B|----------------------------|
G|----------------------------|
D|-------2--5-----------------|
A|-3--5-----------------------|
E|----------------------------|

A 
Bailar, tomar y el mundo arreglar
en una noche como hoy, todo puede pasar!

Salir! Bailar! Tomar!
E|-----------------------------------------| X 3
B|-----------------------------------------|
G|-8h7-5h7--8-8h7-5h7--8-8h7-5h7-----------|
D|-----------------------------------------|
A|--------------------------------3--5--0--|
E|-----------------------------------------|

E|----------------------------------------------------------------|
B|----------------------------------------------------------------|
G|-8h7-5h7--8-8h7-5h7--8-8h7-5h7--5--5----------------------------|
D|----------------------------------7--7-5h7--5---5---------------|
A|----------------------------------------------7---7--5-7-5-3-0--|
E|----------------------------------------------------------------|


A                  F  G  
Noches Alegres, mañanas tristes
A                   F  G  
Noches Alegres, mañanas tristes
A                   F (X 3) G  
Noches Alegres, mañanas tristes
A                   F  G  
Noches Alegres, mañanas tristes JUA!


Bailar, tomar y el mundo arreglar

Salir! Bailar! Tomar!
E|-----------------------------------------| X 3
B|-----------------------------------------|
G|-8h7-5h7--8-8h7-5h7--8-8h7-5h7-----------|
D|-----------------------------------------|
A|--------------------------------3--5--0--|
E|-----------------------------------------|

E|---------------------------------------------------------------|
B|---------------------------------------------------------------|
G|-8h7-5h7--8-8h7-5h7--8-8h7-5h7--5--5---------------------------|
D|----------------------------------7--7-5h7--5---5--------------|
A|----------------------------------------------7---7--5-7-5-3-0-|
E|---------------------------------------------------------------|

Saquenme de este infierno! x 3
E|-----------------------------------------|
B|-----------------------------------------|
G|-8h7-5h7--8-8h7-5h7--8-8h7-5h7-----------|
D|-----------------------------------------|
A|--------------------------------3--5--0--|
E|-----------------------------------------|

E|-----------------------------------------|
B|-----------------------------------------|
G|-8h7-5h7--8-8h7-5h7--8-8h7---------------|
D|-----------------------------------------|
A|-----------------------------------------|
E|-----------------------------------------|
Otros videos de esta canción
    9 exhibiciones
      • ½ Tono
      • Am
      • Bbm
      • Bm
      • Cm
      • C#m
      • Dm
      • Ebm
      • Em
      • Fm
      • F#m
      • Gm
      • G#m
    • Agregar a la lista

    Afinação da cifra

    Afinador online

      Ops (: Contenido disponible solo en portugués.
      OK