Cifra Club

La poderosa muerte

Chancho En Piedra

Cifrado: Principal (guitarra y guitarra eléctrica)
Selo Cifra Club: esta cifra foi revisada para atender aos critérios oficiais da nossa Equipe de Qualidade.
tono: A
E|---------------------------------------------------|
B|---------------------------------------------------|
G|-5-5-3---------------------------------------------|
D|-------6-5--5-6-5---3-------3-3-5-3----------------|
A|------------------6---5-3-5---------6--5-6-5---3-0-|
E|---------------------------------------------6-----|

E|------------------------------------------------------|
B|------------------------------------------------------|
G|-2-2-4------------------------------------------------|
D|-------5-4--4-5-4---2-4-4-4------4-2------------------|
A|------------------5----------4-4-----5-4--5-4-5---2---|
E|------------------------------------------------5---4-|


    C#m 
:/Entonces en la escala de la tierra he subido/:
    C#m 
Entre la atroz maraña de las selvas pérdidas
             F#m -E     C#m -F#m -F#m 
Hasta ti,GATO ALQUINTA!
 E            C#m -F#m 
alta ciudad de piedras escalares
           D -C#m 
por fin morada del que lo terrestre
F#m        A             F#m -E -C#m 
no escondió en las dormidas vestiduras.
E        F#m -C#m 
en ti como dos lineas paralelas
          F#m -G#m       C#m 
la cuna del relámpago y del hombre
   F#m         G#m          C#m 
se mecian en un viento de espinas
 F#m             E            G#m  -C#m 
madre de piedra,espuma de los condores
 F#m                 G#m      C#m -F#m 
alto arrecife de la aurora humana...na na na na...

E|---------------------------------------------------------|
B|---------------------------------------------------------|
G|---------------------------------------------------------|
D|-7-6-5-4-5-6-7-6-5-4-7~(var| ias veces y rápido)--9-9-9-9~-|
A|---------------------------------------------------------|
E|---------------------------------------------------------|

E|----------------------------------------------------------------------------|
B|----------------------------------------------------------------------------|
G|----------------------------------------------------------------------------|
D|-7-6-5-4-5-6-7-6-5-4-7-(var| ias veces y rápido)------------------------------|
A|-----------------------------------------------7-6-5-4----------------------|
E|-------------------------------------------------------7-6-5-4-(| chamullado)-|

E|----------------------------------------------------------|
B|-12/17~--20-17~-------------------------------------------|
G|-----------------12/14-16-16b17b16--14~-------------------|
D|----------------------------------------------------------|
A|----------------------------------------------------------|
E|----------------------------------------------------------|

'Cuando la mano de color de arcilla,se convirtió en arcilla...
E|----------------------------------------------------------|
B|----------15/17~----20-17~--------------------------------|
G|----------------------------------12/14-16-16/17-16--14~--|
D|----------------------------------------------------------|
A|----------------------------------------------------------|
E|----------------------------------------------------------|
...y cuando los pequeños párpados,se cerraron...
E|----------------------------------------------------------|
B|----15/17--------17-20-20b22-20-17--------------------17~-|
G|------------------------------------12/14-16-17-16-14-----|
D|----------------------------------------------------------|
A|----------------------------------------------------------|
E|----------------------------------------------------------|
...llenos de ásperos muros,poblados de castillos...
E|----------------------------------------------------------|
B|----------15/17~----20-17~--------------------------------|
G|----------------------------------12/14-16-16/17-16--14~--|
D|----------------------------------------------------------|
A|----------------------------------------------------------|
E|----------------------------------------------------------|
...y cuando todo el hombre,se enredó en su agujero!...
E|----------------------------------------------------------|
B|-13/15-17-17/19-17-15--15/17-20*20*20*20-17~-(*=r| ápidas)--
G|----------------------------------------------------------|
D|----------------------------------------------------------|
A|----------------------------------------------------------|
E|----------------------------------------------------------|
quedó la exactitud enarbolada,el alto sitio de la aurora humana!
E|----------------------------------------------------------|
B|-11/13-15-15/17-15-13~-------15/17-20b22b20-17~-----------|
G|----------------------------------------------------------|
D|----------------------------------------------------------|
A|----------------------------------------------------------|
E|----------------------------------------------------------|
   ¡la más alta vasija,que contuvo el silencio!
E|----------------------------------------------------------|
B|-13-15-17-15-13-17-13~--20-19-20-19-17-20-17~-------------|
G|----------------------------------------------------------|
D|----------------------------------------------------------|
A|----------------------------------------------------------|
E|----------------------------------------------------------|
...una vida de piedra,despues de tantas vidas...'
E|----------------------------------------------------------|
B|--13/15-17-17/19-17-15---15/17-20-17~---------------------|
G|----------------------------------------------------------|
D|----------------------------------------------------------|
A|----------------------------------------------------------|
E|----------------------------------------------------------|

Ahora un solo del k-vzón que es diferente al de la versión original:

E|---------------------------------------------------------|
B|---------------------------------------------------------|
G|-11/12-11-12-11----12~-----[16-14------------------------|
D|----------------14-----14--------17-16-17~]>| esto 3 veces-
A|---------------------------------------------------------|
E|---------------------------------------------------------|

E|------------------------------------------------------------------------|
B|---------------------------[12----12-13----13-15-13-12-13-12------------|
G|-11/12-11-12-11----12~--------11-------12-------------------14]>2| veces-
D|----------------14-----14-----------------------------------------------|
A|------------------------------------------------------------------------|
E|------------------------------------------------------------------------|

E|-------------------------------------------------------------------------|
B|-----17-15-----------------------17-15----------15-17-19-20-19-17-15-17~-|
G|-----------17-16-(| dos veces)-----------17-16-17--------------------------|
D|-14~-------------------------14~-----------------------------------------| /todo esto 5 veces
A|-------------------------------------------------------------------------| /
E|-------------------------------------------------------------------------| /

y termina en un poderoso Mi5:
  E5 
E|-x-| Nota:si no han escuchado nunca
B|-x-| esta rareza musical,agregenme
G|-9-| y yo se las mando he intercambiamos
D|-9-| unos temas ahi,xD...chao.
A|-7-|
E|-0-|
Otros videos de esta canción
    196 exhibiciones
      • ½ Tono
      • A
      • Bb
      • B
      • C
      • Db
      • D
      • Eb
      • E
      • F
      • F#
      • G
      • Ab
    • Agregar a la lista

    Afinação da cifra

    Afinador online

      Ops (: Contenido disponible solo en portugués.
      OK