Cifra Club

Largo Tour

Chancho En Piedra

Cifrado: Principal (guitarra y guitarra eléctrica)
Selo Cifra Club: esta cifra foi revisada para atender aos critérios oficiais da nossa Equipe de Qualidade.
tono: Bm
  Em   Bm    A    G  
E|-7----7-----5----3---|
B|-8----7-----5----3---|
G|-9----7-----6----4---|
D|-9----9-----7----5---|
A|-7----9-----7----5---|
E|------7-----5----3---|


Asi empieza la canción (RIFF 1).
En realidad lo toca el bajo pero de todas maneras lo pongo.
Tambien lo toca en medio de los coros.

RIFF 1
E|-------------|
B|-------------|
G|-------------|
D|-------------|
A|---------2-2-|
E|-0-0-3-3-----|

RIFF 2

E|-----------|
B|-----------|
G|-----------|
D|-----------|
A|-5h7-5h7~~-|
E|-----------|

intro:

   Bm                     A                   Em 
E|-----------------------------------------------------------------|
B|------7--10~------7-10~------------------------------------------|
G|-8-8----------8-8-----------6-9~------6-9~------9-12~-----9-12~--|
D|------------------------7-7-------7-7-------9-9-------9-9--------|
A|-----------------------------------------------------------------|
E|-----------------------------------------------------------------|

   Bm                     A                  Em 
E|------------------------------------------------|
B|------7--10~------7-10~-------------------------|
G|-8-8----------8-8-----------6-9~------6-9~-9~~--|
D|------------------------7-7-------7-7-----------|
A|------------------------------------------------|
E|------------------------------------------------|


Em 
A esta hora justamente a esta hora
Bm                          A 
en que tu cerebro empieza a cabecear
Em 
con la ultima telenovela
Bm                 A 
quisiera sacarte a caminar
Em 
en un largo tour.

G       A      Em  (RIFF 1)
por Pudahuel y La Bandera
G       A      Em 
por Pudahuel y por La Legua

G       A      Em 
y verias la vida tal como es (RIFF 2)
G       A      Em 
y verias la vida tal como es
Otros videos de esta canción
    258 exhibiciones
      • ½ Tono
      • Am
      • Bbm
      • Bm
      • Cm
      • C#m
      • Dm
      • Ebm
      • Em
      • Fm
      • F#m
      • Gm
      • G#m
    • Agregar a la lista

    Afinação da cifra

    Afinador online

      Ops (: Contenido disponible solo en portugués.
      OK