Cifra Club

Mampato

Chancho En Piedra

Cifrado: Principal (guitarra y guitarra eléctrica)
Selo Cifra Club: esta cifra foi revisada para atender aos critérios oficiais da nossa Equipe de Qualidade.
tono: Em
Introduccion (Con Vibracion)

E|-------------------------------|
B|-------------------------------|
G|-------------------------------|
D|--3~~---9~~-----4~~---10~~-----|
A|--5~~---7~~-----6~~---8~~------|
E|-------------------------------|

Riff 1 Tokar A B A

A:

E|------------------------------------------------------|
B|-1-1--------------------------------------------------|
G|-----0-1-3-1-0---0-1-0-0--------0---------------------|
D|---------------3------------2-3---3-2-0-2-3--2-2------|
A|------------------------------------------------------|
E|------------------------------------------------------|

B:

E|--------------|
B|--------------|
G|--------------|
D|-2-0-2-3-2-0--|
A|--------------|
E|--------------|

Riff 2 (Luego tokas esto bien rapido )
E|------------------------------------------------------|
B|------------------------------------------------------|
G|-----------------1-0-1-3-1-0-3-1-0-3-1-0--------------|
D|-2-2-2-0-2-3-2-3-------------------------3-2-0--------|
A|-----------------------------------------------3------|
E|------------------------------------------------------|

Verso A)

C                                                  A 
Cuando adelante va, no siempre el tiempo queda atrás,
C                                              A 
Su nombre se dirá del norte hasta tierra austral.
Mampato, mampato, mampato!.

Verso B)

E|----------------------------------------|
B|----------------------------------------|
G|-------------------------------0h1h2----|
D|-2-0---------------2-0------------------|
A|-----2-1-2-1-0---------2-1-2-1----------|
E|----------------------------------------|

 Viaja con su cinto espacio temporal

E|---------------------------------------------------------------|
B|---------------------------------------------------------------|
G|------------------------------------------------------0h1h2~~--|
D|-2-0---------------2-0-----2-0-----2-0------------0h2----------|
A|-----2-1-2-1-0---------2-1-----2-1-----2-1--0-1-2--------------|
E|---------------------------------------------------------------|

 Ir al pasado      ir al futuro para él es  normal.

B)
Siempre deja amigos en todo lugar
Imparte justicia donde hay problemas, trae la libertad.

A)
Va con seguridad venciendo la adversidad.
La ayuda la amistad de un hombre cavernícola.
Ogú, Ogú, Ogú!.

B)
Ogú es su nombre, no sabe nadar
Tiene mas fuerza que le mas feroz animal.
Juntos viajarán, el tiempo cambiarán,
Futuro y pasado tengan cuidado que ellos para allá van.

Aqui tokas lo Sgte:
Riff 1 >> A B A
Riff 2

A)
Su mano extenderán a quien tenga dificultad.
Siempre ellos irán  luchando por la igualdad.

Verso C)

F                      G                         C 
Verán que hay maldad e historia llenas de crueldad,
F                                E 
Pero la hermandad triunfa al final.


B)
Viajan al futuro, al siglo 40,
Mampato conoce a Reina, una niña que es telépata.
Inmediatamente ella se enamora
Se une con ellos en la aventura de cambiar la historia.

Ahora vienen los Siguintes riff:

  Riff 4
E|--------------------|
B|--------------------|
G|--------------------|
D|-4-4-4-2-4----------|
A|-----------3-2-0----|
E|--------------------|

  Riff 5
E|---------------|
B|---------------|
G|---------------|
D|---------------|
A|-2-2-2-0-4-----|
E|-----------2-2-|

Este es el orden

Riff 4>
Riff 4>
Riff 4>
riff 5>
riff 5> Todo x 4

Coro gola-Gola)

E|------------------------------------------------------|
B|--------| Lo Tokas Durante Todo el Coro-----------------
G|------------------------------------------------------|
D|------------------------------------------------------|
A|--------------------------------1--3--4--3--4--3------|
E|--3--x--3--3--x--3--3--x--3--3------------------------|

'Gola, gola, ihmba, pathana, yica karnita, kili,  kili, mi le pega
Pumba, pumba, ihmbara ihmba, ihmba pathana, rojo tios, kamú
Aguakekorre, uhmbarha ihmba, tinalin, amiko mampatú, akarrúú'

'pathana!(ihmba!), pathana!(ihmba!), pathana!(ihmba!)… AKARRÚÚ!'

F#5      A5       C5 
Mampato, mampato, mampato...

Riff 6>
E|-----------------------------------|
B|-----------------------------------|
G|-----------------------------------|
D|-4-4-4-2-4--------4-4-4-2-4--------|
A|-----------2-2--------------2-2~~--|
E|-----------------------------------|

Ahora Se Toka:
Riff 5>
Riff 5>
Riff 4>  Una Pausa ya ke viene el solo de bateria del Toño
Riff 4>  Otra Pausa ya ke viene el Otro solo de bateria del Toño con percusion
Riff 4>  La ultima Pausa ya ke viene el ultimo solo de bateria del Toño
Riff 5>
Riff 5>

Verso D)

F#5 
En cada lectura una aventura,
A5                     C5  B5  C5  B5 
En tierras pasadas o tierras futuras

D)
Venció amenazas de todas las razas,
Bajo la tierra o de otras galaxias.

D)
Muchos maleantes, pueblos mutantes,
Gente macabra, monstruos.

Verso E)
F#5 
Su valentía y compañía,
A5                     C5  B5  C5  B5  C5  B5  C5  B5 
Lo hace invencible frente a la vida...

D  - C#  - C  - B  - Bb  - A  ( opcional )

Aqui tokas lo Siguiente>

Riff 1> X 3

Anda!, ve y pelea!,
Ihmba!,pumba!, akarruu!(x2)

          C     C         E      E 
E|-------------------------------------|
B|-1-1---------------------------------|
G|-------------------------------------|
D|----------5-----5---------9------9---|
A|----------3-----3---------7------7---|
E|-------------------------------------|

Riff 7 y Final
E|-------------------------------------|
B|-------------------------------------|
G|-2-3-5-3-2-------0-2-0-2-3-2-3-5-3---|
D|------------4-3----------------------|
A|-------------------------------------|
E|-------------------------------------|

E|--------------------------------------|
B|--------------------------------------|
G|-5-6-5-6-8-6-5-6-5---3-5-3-2-3-2------|
D|----------------------------------4~~~|
A|--------------------------------------|
E|--------------------------------------|

Tocarlo con mucha armonia....

E|----------------0--------------------------8-----|
B|-------------1--------------------------8--------|
G|----------0--------------------------9-----------|
D|-------2-------------------------10--------------|
A|----3------------------------10------------------|
E|--------------------------8----------------------|
Otros videos de esta canción
    25 exhibiciones
      • ½ Tono
      • Am
      • Bbm
      • Bm
      • Cm
      • C#m
      • Dm
      • Ebm
      • Em
      • Fm
      • F#m
      • Gm
      • G#m
    • Agregar a la lista

    Afinação da cifra

    Afinador online

      Ops (: Contenido disponible solo en portugués.
      OK